rock
 
|tablatures   |lyrics   |discussion forums   |more tabs @ XGuitar.com

Blink_182 tabs

I Miss You guitar tab

Blink 182- I miss you


Intro/Verses
 e----------------     This is repeated throughout the song, simple!
 b----------------
 g---4/8-8-8-8-8--
 d---x/x-x-x-x-x--
 a---2/6-6-6-6-6--
 E----------------

Chorus
 e---------------------------------------------------------------
 b---------------------------------------------------------------
 g--4-4-4-4-4-4/6-6-6-6-6-6/8-8-8-8-8-8/11-11-11-11-11-11--------
 d--x-x-x-x-x-x/x-x-x-x-x-x/x-x-x-x-x-x/ x--x--x--x--x--x--------
 a--2-2-2-2-2-2/4-4-4-4-4-4/6-6-6-6-6-6/ 9--9--9--9--9--9--------
 E---------------------------------------------------------------

 e-----------------------------------------
 b-----------------------------------------
 g-----------------------------------------
 d--6-6-6-6-6-6-8-8-8-8-8-8-9-9-9-9-9-9----
 a--7-7-7-7-7-7-7-7-7-7-7-7-7-7-7-7-7-7----
 E--0-0-0-0-0-0-0-0-0-0-0-0-0-0-0-0-0-0----
Piano Part
 e-----------------------------------------
 b-----------------------------------------
 g--11-8-11-8-11-8-11-8-11-8-11-9-11-9-8---
 d---------------------------------------9-
 a-----------------------------------------
 E-----------------------------------------

   Thats it, i think this tab is pretty damn correct, well Enjoy!
  development and support by
dmitry ivanov