rock
 
|tablatures   |lyrics   |discussion forums   |more tabs @ XGuitar.com

Blink_182 tabs

Here's Your Letter guitar tab

Title: Heres Your Letter
Artist: Blink 182
Album: Blink 182

Instrument: 6 String Guitar

Tabbed by: guitarist981 ()

Tuning: Standard (E A D G B E)



intro
E|----------------------------------------||
B|----------------------------------------||
G|-9-9-9-9-9-6-6-6-4-4-4-6-6-6-2-2-2-2-2--||
D|-x-x-x-x-x-x-x-x-x-x-x-x-x-x-x-x-x-x-x--||
A|-7-7-7-7-7-4-4-4-2-2-2-4-4-4-0-0-0-0-0--||
E|----------------------------------------||

bass riff at the beggining of verse

E|------------------------------------------------||
B|------------------------------------------------||
G|------------------------------------------------||
D|------------------------------------------------||
A|-------------5-5-5-5-5-5------------------------||
E|-2-2-2-2-2-2-------------5-5-5-5-5-2-2-0-0------||

guitar that comes into the verse palm mute
E|------------------------------------||
B|------------------------------------||
G|------------------------------------||
D|---------7-7-7-7--------------------||
A|-4-4-4-4-5-5-5-5-7-7-7-7-4-4-2-2----||
E|-2-2-2-2---------5-5-5-5-2-2-0-0----||
ring it into the chorus
E|------------------------------||
B|------------------------------||
G|------------------------------||
D|-7~-7-7-7-6-6-6-4-4-4-6-6-6---||
A|-x~-7-7-7-6-6-6-4-4-4-6-6-6---||
E|-5~-5-5-5-4-4-4-2-2-2-4-4-4---||

chorus reapeat as much times neccesary
E|-------------------------------------||
B|-------------------------------------||
G|-7-7-7-7-----------------------------||
D|-x-x-x-x-7-7-7-6-6-6-4-4-4-6-6-6-----||
A|-5-5-5-5-7-7-7-6-6-6-4-4-4-6-6-6-----||
E|---------5-5-5-4-4-4-2-2-2-4-4-4-----||

intro
verse
chorus


next part
E|---------------------------------||
B|---------------------------------||
G|---------------------------------||
D|-4-4-4-4-4-7-7-7-7-7-------------||
A|-4-4-4-4-4-7-7-7-7-7-------------||
E|-2-2-2-2-2-5-5-5-5-5-------------||

im talking to the ceiling...
E|---------------------------------||
B|---------------------------------||
G|---------------------------------||
D|-4-4-4-4-6-6-6-6-6-7-7-7-7-7-7-7-||
A|-4-4-4-4-6-6-6-6-6-7-7-7-7-7-7-7-||
E|-2-2-2-2-4-4-4-4-4-5-5-5-5-5-5-5-||

chorus
intro
end on

E|----------------||
B|----------------||
G|----------------||
D|-7~-------------||
A|-x~-------------||
E|-5~-------------||
  development and support by
dmitry ivanov