rock
 
|tablatures   |lyrics   |discussion forums   |more tabs @ XGuitar.com

Blink_182 tabs

Here's Your Letter bass tab

intro - (0:02)
|------------------------------------|  |-----------------------------------|
|------------------------------------|  |-----------------------------------|
|---------55555555-00000000-22222222-|x1|---------55555555-0000000000000000-|x1
|-22222222---------------------------|  |-22222222--------------------------|

verse 1 - (0:14)
|------------------------------------|  |----------------------------------|
|------------------------------------|  |----------------------------------|
|---------55-55-5-00-00-0-22-2-2h4p2-|x1|---------55-55-5-0000000000000000-|x1
|-222-22-2---------------------------|  |-222-22-2-------------------------|

|------------------------------------|  |-------------------------|
|------------------------------------|  |-------------------------|
|---------55-55-5-00-00-0-22-2-2h4p2-|x1|---------55-55-5-0~~~~~~-|x1
|-222-22-2---------------------------|  |-222-22-2----------------|

chorus - (0:36)
|------------------------------|
|------------------------------|
|-------------------5555555555-|x2
|-555-444-000-222222-----------|

Reapeat Intro - (0:47)

verse 2 - (0:57)
|------------------------------------|  |----------------------------------|
|------------------------------------|  |----------------------------------|
|---------55-55-5-00-00-0-22-2-2h4p2-|x1|---------55-55-5-0000000000000000-|x1
|-222-22-2---------------------------|  |-222-22-2-------------------------|

|------------------------------------|  |-------------------------|
|------------------------------------|  |-------------------------|
|---------55-55-5-00-00-0-22-2-2h4p2-|x1|---------55-55-5-0~~~~~~-|x1
|-222-22-2---------------------------|  |-222-22-2----------------|

chorus - (1:19)
|------------------------------|
|------------------------------|
|-------------------5555555555-|x4
|-555-444-000-222222-----------|

bridge - (1:41)
|-------------------------------|
|-------------------------------|
|------------------555555555555-|x2
|-5555555555555554--------------|

|--------------------------------------------------------------------|
|--------------------------------------------------------------------|
|--------------------------------------------------------------------|x2
|-2222222222222222-4444444444444444-55555555555555555555555555555555-|

chorus - (2:14)
|------------------------------|
|------------------------------|
|-------------------5555555555-|x4
|-555-444-000-222222-----------|

Play Intro as Outro - (2:35)

End on:

A-2-

Well Thats It! Please Rate This!
  development and support by
dmitry ivanov