rock
 
|tablatures   |lyrics   |discussion forums   |more tabs @ XGuitar.com

Blink_182 tabs

Go guitar tab

Band: Blink 182
Song: Go
Tabbed by Blink182wolf112
standard tuning

/ - slide
~ - let ring

intro
e------------------------------           e------------------------------
b------------------------------           b------------------------------
g----9---------10--------------     or    g----9-------------------------
d----9-(x16)---10-(x16)-------- x2        d----9-(x16)---10-------------- x2
a----7---------8---------------           a----7---------10-(x16)--------
e------------------------------           e--------------8---------------

e---------------------------------------------------------------------
b---------------------------------------------------------------------
g---------------------------------------------------------------------
d----101010101010101010101010---999-/-12---3333333333333333----------- x2
a----x-x-x-x-x-x-x-x-x-x-x-x----xxx-/-x----xxxxxxxxxxxxxxxx-----------
e----8-8-8-8-8-8-8-8-8-8-8-8----777-/-10---1111111111111111-----------

e--------------------------------------           e--------------------------------------
b--------------------------------------           b--------------------------------------
g-----------9999---1010101010101010----     or    g--------------------------------------
d----7777---9999---1010101010101010---- x2        d----7777---2222---33333333------------ x2
a----7777---7777---8-8-8-8-8-8-8-8-----           a----7777---2222---33333333------------
e----5555------------------------------           e----5555---0000---11111111------------

then repeat all ^^^

e-------------------------------------------------
b-------------------------------------------------
g----5555555555555555-----------------------------
d----5555555555555555---3333333333333333---------- x2
a----3333333333333333---3333333333333333----------
e-----------------------1111111111111111----------
pm.....................................(during bass solo)

e-------------------------------------------------
b-------------------------------------------------
g----5-~~~~~~~~~~~~-------------------------------
d----5-~~~~~~~~~~~~------7------------------------
a----3-~~~~~~~~~~~~------7------------------------
e------------------------5------------------------

e--------------------------------------           e--------------------------------------
b--------------------------------------           b--------------------------------------
g-----------9999---1010101010101010----     or    g--------------------------------------
d----7777---9999---1010101010101010---- x2        d----7777---2222---33333333------------ x2
a----7777---7777---8-8-8-8-8-8-8-8-----           a----7777---2222---33333333------------
e----5555------------------------------           e----5555---0000---11111111------------


e--------------------------------------------------------
b--------------------------------------------------------
g----9999999999999999---5555---7777---9999---10101010----
d----xxxxxxxxxxxxxxxx---xxxx---xxxx---xxxx---x-x-x-x----- x3
a----7777777777777777---3333---5555---7777---8-8-8-8-----
e--------------------------------------------------------

e-------------------------------------
b-------------------------------------
g----99999999-9-9-9-9-9-9-------------
d----xxxxxxxx-x-x-x-x-x-x---3-~-------
a----77777777-7-7-7-7-7-7---3-~-------
e---------------------------1-~-------

This was origanally my first tab but when i tried to submit it on this site a long
time ago it wouldnt let me for some reason, and there wasnt any tabs on the site for
this song yet but anyways, here it is, if you have any questions or corrections email
me, thanx, enjoy -Nick-
  development and support by
dmitry ivanov