rock
 
|tablatures   |lyrics   |discussion forums   |more tabs @ XGuitar.com

Blink_182 tabs

First Date bass tab

yo this my tab for first date hope ya like it, this is 100% right,
i play it on my bass all the time it sounds perfect with the music, 
if u think the chorus sounds kinda bad then dont cuz thats the accual bass line,
its just the guitar makes it sound different when ur listenin to blink play it



drums for 2 measures

intro:

|---------------------------------
|---------------------------------
|-3-3-3-3-3-3-3-3-5-5-5-5-5-5-5-5-
|---------------------------------

|---------------------------------
|-3-3-3-3-3-3-3-3-5-5-5-5-5-5-5-5-
|---------------------------------
|---------------------------------

play this twice

verse one

|---------------------------------
|---------------------------------
|-3-3-3-3-3-3-3-3-3-3-3-3-3-3-3-3-
|---------------------------------
in the car, i just cant wait......
|---------------------------------
|---------------------------------
|---------------------------------
|-3-3-3-3-3-3-3-3-1-1-1-1-1-1-1-1-

repeat this four times, 
you play this through the whole first verse

chorus:

|----------------------------------------------
|----------------------------------------------
|-3-3-3----2-2-2---0--0-0-0-0-0-0--------------  x2
|---------------------------------1--1-1-3--3-3

let's go,    don't wait  this nights almost over
 honest      let's make  this night last forever

|---------------------------------
|---------------------------------
|-3-3-3-3-3-3-3-3-2-2-2-2-2-2-2-2-
|---------------------------------

     for-ev - er     and ev - er

|---------------------------------
|---------------------------------
|-0-0-0-0-0-0-0-0-----------------
|-----------------1--1-1-3--3-3---

   let's make this last for ever
|---------------------------------
|---------------------------------
|-3-3-3-3-3-3-3-3-2-2-2-2-2-2-2-2-
|---------------------------------

     for-ev - er     and ev - er

|---------------------------------
|---------------------------------
|-0-0-0-0-0-0-0-0-----------------
|-----------------1--1-1-3--3-3---

   let's make this last for ever

(intro)

|---------------------------------
|---------------------------------
|-3-3-3-3-3-3-3-3-5-5-5-5-5-5-5-5-
|---------------------------------

|---------------------------------
|-3-3-3-3-3-3-3-3-5-5-5-5-5-5-5-5-
|---------------------------------
|---------------------------------

play this twice

verse 2



|---------------------------------
|---------------------------------
|-3-3-3-3-3-3-3-3-3-3-3-3-3-3-3-3-
|---------------------------------
when ya smile , i melt inside......
|---------------------------------
|---------------------------------
|---------------------------------
|-3-3-3-3-3-3-3-3-1-1-1-1-1-1-1-1-

repeat this four times, you play this through the whole second verse

chorus:

|----------------------------------------------
|----------------------------------------------
|-3-3-3----2-2-2---0--0-0-0-0-0-0--------------  x2
|---------------------------------1--1-1-3--3-3

let's go,    don't wait  this nights almost over
 honest      let's make  this night last forever

|---------------------------------
|---------------------------------
|-3-3-3-3-3-3-3-3-2-2-2-2-2-2-2-2-
|---------------------------------

     for-ev - er     and ev - er

|---------------------------------
|---------------------------------
|-0-0-0-0-0-0-0-0-----------------
|-----------------1--1-1-3--3-3---

   let's make this last for ever
|---------------------------------
|---------------------------------
|-3-3-3-3-3-3-3-3-2-2-2-2-2-2-2-2-
|---------------------------------

     for-ev - er     and ev - er

|---------------------------------
|---------------------------------
|-0-0-0-0-0-0-0-0-----------------
|-----------------1--1-1-3--3-3---

   let's make this last for ever

solo:

wait 8 measures for the guitar, and then 

|----------------------------------
|----------------------------------
|---3-3-3-3-3-3-3------------------
|--------------------0-0-0-0-0-0-0-

|----------------------------------
|----------------------------------
|----------------------------------
|--1-1-1-1-1-1-1---3-3-3-3-3-3-3-3-

|----------------------------------
|----------------------------------
|---3-3-3-3-3-3-3------------------
|-3----------------0-0-0-0-0-0-0-0-

|----------------------------------
|----------------------------------
|----------------------------------
|---1-1-1-1-1-1-1----3-3-3-3-3-3-3-

|----------------------------------
|----------------------------------
|---3-3-3-3-3-3-3------------------
|-3----------------0-0-0-0-0-0-0-0-

|----------------------------------
|----------------------------------
|----------------------------------
|---1-1-1-1-1-1-1----3-3-3-3-3-3-3-

|----------------------------------
|----------------------------------
|---3-3-3-3-3-3-3------------------
|-3----------------0-0-0-0-0-0-0-0-

|----------------------------------
|----------------------------------
|----------------------------------
|---1-1-1-1-1-1-1----3-3-3-3-3-3-3-

chorus:

|----------------------------------------------
|----------------------------------------------
|-3-3-3----2-2-2---0--0-0-0-0-0-0--------------  x2
|---------------------------------1--1-1-3--3-3

let's go,    don't wait  this nights almost over
 honest      let's make  this night last forever

|---------------------------------
|---------------------------------
|-3-3-3-3-3-3-3-3-2-2-2-2-2-2-2-2-
|---------------------------------

     for-ev - er     and ev - er

|---------------------------------
|---------------------------------
|-0-0-0-0-0-0-0-0-----------------
|-----------------1--1-1-3--3-3---

   let's make this last for ever
|---------------------------------
|---------------------------------
|-3-3-3-3-3-3-3-3-2-2-2-2-2-2-2-2-
|---------------------------------

     for-ev - er     and ev - er

|---------------------------------
|---------------------------------
|-0-0-0-0-0-0-0-0-----------------
|-----------------1--1-1-3--3-3---

   let's make this last for ever


last note: A|-3-  let ring
  development and support by
dmitry ivanov