rock
 
|tablatures   |lyrics   |discussion forums   |more tabs @ XGuitar.com

Blink_182 tabs

Fentoozler guitar tab

Artist : Blink 182 
Title  : Fentoozler 
Tabbed By : Rishesh Singh (XtremeDimon@icqmail.com) 


Intro 
e|--------------------------------------------------------------------| 
B|--------------------------------------------------------------------| 
G|----------11-11-11-11-----------9-9-9-9----------6-6-6-6-9-9-9-9-8--| 
D|-9-9-9-9--11-11-11-11--9-9-9-9--9-9-9-9--9-9-9-9-6-6-6-6-9-9-9-9-8-9| 
A|-9-9-9-9--9--9--9--9---9-9-9-9--7-7-7-7--9-9-9-9-4-4-4-4-7-7-7-7-6-9| 
E|-7-7-7-7---------------7-7-7-7-----------7-7-7-7-------------------7| 

Verse 
e|--------------------------------------------------------------------| 
B|--------------------------------------------------------------------| 
G|---------11-x-x-x---------9-x-x-x---------6-x-x-9-9-9-9-9-9-9--8----| 
D|-9-x-x-x-11-x-x-x-9-x-x-x-9-x-x-x-9-x-x-x-6-x-x-9-9-9-9-9-9-9--8--9-| 
A|-9-x-x-x-9--x-x-x-9-x-x-x-7-x-x-x-9-x-x-x-4-x-x-7-7-7-7-7-7-7--6--9-| 
E|-7-x-x-x----------7-x-x-x---------7-x-x-x-------------------------7-| 

Chorus 
e|--------------------------------------------------------------------| 
B|--------------------------------------------------------------------| 
G|-6-6-6-6-6-6--9-9-9-9-9-9---------------11-11-11-11-11-11-----------| 
D|-x-x-x-x-x-x--x-x-x-x-x-x--9-9-9-9-9-9--x--x--x--x--x--x------------| 
A|-4-4-4-4-4-4--7-7-7-7-7-7--x-x-x-x-x-x--9--9--9--9--9--9------------| 
E|---------------------------7-7-7-7-7-7------------------------------| 
  development and support by
dmitry ivanov