rock
 
|tablatures   |lyrics   |discussion forums   |more tabs @ XGuitar.com

Blink_182 tabs

Feeling This guitar tab

Feeling This by blink-182

... Plam mute

Just Drums
|----------------------------------------------------------------|
|----------------------------------------------------------------|
|----------------------------------------------------------------|
|--------------------------------------------6-6-------------6-6-|
|--------------------------------977-777-7779----977-777-7779----|
|----------------------------------------------------------------|

verse
|----------------------------------------------------------------|
|----------------------------------------------------------------|
|----------------------------------------------------------------|
|------------6-6-------------6-6-------------6-6-------------6-6-|
|977-777-7779----977-777-7779----977-777-7779----977-777-7779----|x2
|----------------------------------------------------------------|

chorus
|----------------------------------------------------------------|
|----------------------------------------------------------------|
|9--------------------------------9------------------------------|
|9--------------------------------9------------------------------|
|7--------------------------------7------------------------------|
|0--------------------------------0------------------------------|

bridge
|----------------|
|----------------|
|----------------|
|--------66667777|
|77779999--------|
|----------------|

verse
|----------------------------------------------------------------|
|----------------------------------------------------------------|
|----------------------------------------------------------------|
|------------6-6-------------6-6-------------6-6-------------6-6-|
|977-777-7779----977-777-7779----977-777-7779----977-777-7779----|x2
|----------------------------------------------------------------|

chorus
|----------------------------------------------------------------|
|----------------------------------------------------------------|
|9--------------------------------9------------------------------|
|9--------------------------------9------------------------------|
|7--------------------------------7------------------------------|
|0--------------------------------0------------------------------|

marks verse
|----------------------------------------------------------------|
|----------------------------------------------------------------|
|----------------------------------------------------------------|
|----------------------------------------------------------------|
|----------------------------------------------------------------|
|----------------------------------------------------------------|

|----------------------------------------------------------------|
|----------------------------------------------------------------|
|9-9-9-9-------------------------9-9-9-9-------------------------|
|9-9-9-9-9-9-9-9-111111117-7-7-7-9-9-9-9-9-9-9-9-111111117-7-7-7-|
|7-7-7-7-9-9-9-9-111111117-7-7-7-7-7-7-7-9-9-9-9-111111117-7-7-7-|
|--------7-7-7-7-9-9-9-9-5-5-5-5---------7-7-7-7-9-9-9-9-5-5-5-5-|
pm...............................................................

chorus
|----------------------------------------------------------------|
|----------------------------------------------------------------|
|9-9-9-9-------------------------9-9-9-9-------------------------|
|9-9-9-9-9-9-9-9-111111117-7-7-7-9-9-9-9-9-9-9-9-111111117-7-7-7-|
|7-7-7-7-9-9-9-9-111111117-7-7-7-7-7-7-7-9-9-9-9-111111117-7-7-7-|
|--------7-7-7-7-9-9-9-9-5-5-5-5---------7-7-7-7-9-9-9-9-5-5-5-5-|(x5)
  development and support by
dmitry ivanov