rock
 
|tablatures   |lyrics   |discussion forums   |more tabs @ XGuitar.com

Blink_182 tabs

Easy Target bass tab

Blink 182 - Easy Target
Tabbed By: blink182xboxcar
Email: blinkandboxcar@msn.com
AOL Instant Message: blinkzboxcar
                     blink182xboxcar

Tuning: Standard (E A D G)

Key:
(xxxx) = lead vocals
[xxxx] = backup vocals
~~~ = let ring



Intro: Drums
       No Bass

intro:

G|---------------------------------------||
D|---------------------------------------||
A|---------------------------------------||
E|-22222222-5555-0000-22222222-5555-0000-||

intro:

G|---------------------------------------||
D|---------------------------------------||
A|---------------------------------------||
E|-22222222-5555-0000-22222222-5555-0000-||


                                             [That's what she wanted!]
Verse 1: (All her signals are getting lost in the either...}

G|-----------------------------------------------------------------------------||
D|-----------------------------------------------------------------------------||
A|-------------------------222-444-5~~~---------------------------222-444-5~~~-||
E|-222-0-2-0-555-444-555-0----------------222-0-2-0-555-444-555-0--------------||

                                             [That's what she wanted!]
verse 1: (So take a good look so you’ll never forget it...)

G|------------------------------------------||
D|------------------------------------------||
A|-------------------------222-444-55555555-||
E|-222-0-2-0-555-444-555-0------------------||

                                             [That's what she wanted!]
verse 1: (Take a deep breath I know I'm gonna regret it...)

G|------------------------------------------||
D|------------------------------------------||
A|-------------------------222-444-55555555-||
E|-222-0-2-0-555-444-555-0------------------||


Chorus: (Holly’s looking dry, looking for an easy target...)

G|---------------------------------------||
D|---------------------------------------||
A|---------------------------------------||
E|-22222222-5555-0000-22222222-5555-0000-||

chorus: (Caution on the road lies, lies and hidden danger...)

G|---------------------------------------||
D|---------------------------------------||
A|---------------------------------------||
E|-22222222-5555-0000-22222222-5555-0000-||


                                             [That's what she wanted!]
Verse 2: (She’s on a mission and I’m collateral damage...)

G|-----------------------------------------------------------------------------||
D|-----------------------------------------------------------------------------||
A|-------------------------222-444-5~~~---------------------------222-444-5~~~-||
E|-222-0-2-0-555-444-555-0----------------222-0-2-0-555-444-555-0--------------||

         [Savor the moment, 'cause the memories fleeting...]
verse 2: (Savor the moment, ‘cause the memories fleeting...)

G|------------------------------------------||
D|------------------------------------------||
A|-------------------------222-444-55555555-||
E|-222-0-2-0-555-444-555-0------------------||

         [Take a photograph, as the last train is leaving...]
verse 2: (Take a photograph, as the last train is leaving...)

G|------------------------------------------||
D|------------------------------------------||
A|-------------------------222-444-55555555-||
E|-222-0-2-0-555-444-555-0------------------||


Chorus: (Holly’s looking dry, looking for an easy target...)

G|---------------------------------------||
D|---------------------------------------||
A|---------------------------------------||
E|-22222222-5555-0000-22222222-5555-0000-||

chorus: (Caution on the road lies, lies and hidden danger...)

G|---------------------------------------||
D|---------------------------------------||
A|---------------------------------------||
E|-22222222-5555-0000-22222222-5555-0000-||


                                      [Holly let me out!]
Ending: (Better run, run, run, run, run...)

G|----------------------------------------------------------||
D|----------------------------------------------------------||
A|-55555555-----------55555555-----------55555555-----------||
E|----------5555-0000----------5555-0000----------5555-0000-||

                                      [Holly let me out!]
ending: (Better run, run, run, run, run, run, run, run...}

G|-------------------||
D|-------------------||
A|-55555555-44444444-||
E|-------------------||


Outro:

G|---------------------------------------||
D|---------------------------------------||
A|---------------------------------------||
E|-22222222-5555-0000-22222222-5555-0000-||

outro:

G|---------------------------------------||
D|---------------------------------------||
A|---------------------------------------||
E|-22222222-5555-0000-22222222-5555-0000-||


End:

G|------||
D|------||
A|------||
E|-2~~~-||


           www.dillholevideos.com <-go there <@:oP
  development and support by
dmitry ivanov