rock
 
|tablatures   |lyrics   |discussion forums   |more tabs @ XGuitar.com

Blink_182 tabs

Dysentery Gary guitar tab

Blink182
Enema of The State
Dysentery Gary
Tabbed By: Michael (MrPink138@mailcity.com)
-------------------------------------
www.estein.com/blink182
-------------------------------------

Riff 1:
E----------------------------------------------------------------------
B----------------------------------------------------------------------
G----------------------------------------------------------------------
D-4-4-4-------5-5-5-4-4-4--------------------4-4-4---------------------
A-------5-5-5-------------5-5-5-5-5-5-5------------------4-4-4-4-4-4-4-
E--------------------------------------3-3-3-------5-5-5---------------

Verse:
D  D     
     Got a lotta heart ache
D  D
     He's a fuckin' weasel
G  G  
     His issues make my mind ache
A  A 
     Wanna make a deal

Cause I love your little motions
You do with your pigtails
What a nice creation
Worth another night in jail

Bridge: D  A
Chorus:
D
He's a player, diarrhea giver
Tried to grow his hair out, friends were listening to Slayer
G
I'd like to find him Friday night
A
Hanging out with mom, trying on his father's tights

Riff 2:
E-15-14--------------   Play this six times
B-------15-----------
G----------12-12-12--
D--------------------
A--------------------
E--------------------
Life just sucks, I lost the one
I'm giving up, she found someone
There's plenty more
Girls are such a drag 

Riff 1

Verse:
So all you little ladies
Be sure to choose the right guys
You'll come back to me maybe
I'll shower you with lies

Got a lotta heart ache
He's a fuckin' weasel
Decisions make my mind ache 
Wanna make a deal

Bridge: D A
D
Ease away the problems and the pain
The girl chose the guy that makes you wanna kick and scream
G
All along, you wish that she would stay
A
Fuck the guy that took and ran away, yeah

Chorus

Interlude

E------------------------------------------------------
B------------------------------------------------------
G------------------------------------------------------
D-4h5-4--2-------4h5-4--2-------4h5-4--2------4h5-4----
A-5--------------5----------5---5-------------5------5-
E----------3-5------------5-------------3-5----------3-

Riff 2:
Fuck this place, I lost the war
I hate you all, your mom's a whore
Where's my dog? 
Cause girls are such a drag

E------------------------------------
B------------------------------------
G------------------------------------
D-4-4-4-------5-5-5-4-4-4------------
A-------5-5-5---------------------5--
E-------------------------5-5-5-5----
  development and support by
dmitry ivanov