rock
 
|tablatures   |lyrics   |discussion forums   |more tabs @ XGuitar.com

Blink_182 tabs

Dumpweed guitar tab

Blink182
Enema of the State
Dumpweed
Tabbed by: Michael (MrPink138@mailcity.com)
-------------------------------------
www.estein.com/blink182
-------------------------------------

Intro: E                                   A
Riff 1:
E----------------------------------------------------------------------
B----------------------------------------------------------------------
G----1-1h2r1------------1-1h2h1-------2-1-1h2r1--------22-1-1h2r1-4----
D--2-------------4---22-------------4-2------------4---22-------------4
A--2---------2-0---2-22---------2-0---0--------2-0---2-00-----------2--
E--0-----------------00------------------------------------------------

Riff 2: play twice
  E           A           B                     A
E-4r0---4r0---2r0---2r0---4r0---4r0---5r0---5r0------------------------
B-----0-----0-----0-----0-----0-----0-----0-----0----------------------
G----------------------------------------------------------------------
D----------------------------------------------------------------------
A----------------------------------------------------------------------
E----------------------------------------------------------------------

Verse:
E                 B
It's understood, I said it many ways
E                   B
Too scared to run, I'm too scared to stay
A                   B
I said I'd leave, I could never leave her
A              B
And if I did, you know I'd never cheat her

But this I ask, it's what I want to know
How would you feel, if I should choose to go
Another guy, you think it'd be unlikely
Another guy, you think he'd wanna fight me

Riff 1

Chorus:
E             B
She's a dove, she's a fucking nightmare
A               B
Unpredictable, it was my mistake to stay here
On the go, it's way too late to play
I need a girl that I can train

Verse:
I heard it once, I'm sure I heard it twice
My dad used to give me all of his advice
He would say "you gotta turn your back and run now
Come on, son, you haven't got a chance now" 

Riff 1
Chorus x2



Verse:
Need a girl that I can train
Need a girl that I can train
Turn your back and run now
You haven't got a chance now

Riff 2 w/Verse Chords
Need a girl that I can train
Need a girl that I can train
Turn your back and run now
You haven't got a chance now

  development and support by
dmitry ivanov