rock
 
|tablatures   |lyrics   |discussion forums   |more tabs @ XGuitar.com

Blink_182 tabs

Dumpweed bass tab

Band: Blink 182
Song: Dumpweed
Album: Enema of the State

This is the easier way to play it

Intro:
G:-----------------------
D:-----------------------
A:-----------------------
E:-0~----0~-----5~----5~-

G:--------------------------------------------------------------------
D:--------------------------------------------------------------------
A:--------------------------------------------------------------------
E:-0-0-0-0-0-0-0-0--5-5-5-5-5-5-5-5--7-7-7-7-7-7-7-7-7-7-7--5-5-5-5-5-

Verse:
G:---------------------------------------------------------
D:---------------------------------------------------------
A:---------------------------------------------------------
E:-0-0-0-0-0-0-0-0--7-7-7-7-7--0-0-0-0-0-0-0-0--7-7-7-7-7--

G:---------------------------------------------------------
D:---------------------------------------------------------
A:---------------------------------------------------------
E:-5-5-5-5-5-5-5-5--7-7-7-7-7--5-5-5-5-5-5-5-5--7-7-7-7-7--

Chorus:
G:--------------------------------------------------------------------
D:--------------------------------------------------------------------
A:--------------------------------------------------------------------
E:-0-0-0-0-0-0-0-0--7-7-7-7-7-7-7-7--5-5-5-5-5-5-5-5--7-7-7-7-7-7-7-7-

G:----------------------------------------------------------
D:----------------------------------------------------------
A:----------------------------------------------------------
E:-0-0-0-0-0-0-0-0--7-7-7-7-7-7-7-7--5-5-5-5-5-5-5-5--7--7--

Outro: Same as verse

TAB: Matt Nielsen zorg500@hotmail.com
  development and support by
dmitry ivanov