rock
 
|tablatures   |lyrics   |discussion forums   |more tabs @ XGuitar.com

Blink_182 tabs

Down bass tab

Blink 182 - Down
Record - blink-182 [untitled album]

Tabbed By: blink182xboxcar
Email: blinkandboxcar@msn.com
AOL Instant Message: blinkzboxcar
                     blink182xboxcar

Tuning: Standard (E A D G)


_KEY_

(xxxx) = Lead Vocals
[xxxx] = Backup Vocals
~ = Carry Over
~~ = Partial Ring Out
~~~ = Ring Out
14 = Fourteen [Not One, Four]
16 = Sixteen [Not One, Six]
==== ==== = seperaters


Really really long...read it though. It's good.


Intro:
      No Bass

intro:

G|-------------------------------------------------------||
D|-------------------------------------------------------||
A|-------------------------------------------------------||
E|-77777777777777-444-6666666-7777777777777-444-66666666-||


Verse I: (The drops of rain they fall all over, This awkward...)

G|---------------------------------------------------||
D|---------------------------------------------------||
A|-6~2-22222-2~6------------6~2-22222-2~6------------||
E|---------------4444-66666---------------4444-66666-||

verse I: (The glow inside burns light upon her. I'll try to...)

G|---------------------------------------------------||
D|---------------------------------------------------||
A|-6~2-22222-2~6------------6~2-22222-2~6------------||
E|---------------4444-66666---------------4444-66666-||


Pre-Chorus: (This can't be the end.)

G|------||
D|------||
A|------||
E|-0~~~-||


Chorus: (Tidal waves they, rip right through me. Tears from...)

G|---------------------------------------------||
D|---------------------------------------------||
A|---------------------------------------------||
E|-4444444444-6666666666-7777777777-2222222222-||

chorus: (Pick me up now, I need you so bad!)

G|-----------------------||
D|-----------------------||
A|-----------------------||
E|-4444444444-6666666666-||


Post Chorus: (Down, down, down, down. Down, down, down, down...)

G|---------------------------------------------||
D|---------------------------------------------||
A|---------------------------------------------||
E|-7777777777-0000000000-4444444444-0000000000-||

             [Down, down, down, down. Down, down, down, down...]
post chorus: (Down, down, down, down. Down, down, down, down...)

G|---------------------------------------------||
D|---------------------------------------------||
A|---------------------------------------------||
E|-7777777777-0000000000-4444444444-0000000000-||

Intro:
       No Bass


Verse II: (Your vowes of silence fall all over. The look in your...)
           No Bass

verse II: (I feel the darkness break upon her. I'll take you...)

G|---------------------------------------------------||
D|---------------------------------------------------||
A|-6~2-22222-2~6------------6~2-22222-2~6------------||
E|---------------4444-66666---------------4444-66666-||


Pre-Chorus: (You did this.)

G|------||
D|------||
A|------||
E|-0~~~-||


Chorus: (Tidal waves they, rip right through me. Tears from...)

G|---------------------------------------------||
D|---------------------------------------------||
A|---------------------------------------------||
E|-4444444444-6666666666-7777777777-2222222222-||

chorus: (Pick me up now, I need you so bad!)

G|-----------------------||
D|-----------------------||
A|-----------------------||
E|-4444444444-6666666666-||


Post Chorus: (Down, down, down, down. Down, down, down, down...)

G|---------------------------------------------||
D|---------------------------------------------||
A|---------------------------------------------||
E|-7777777777-0000000000-4444444444-0000000000-||

             [Down, down, down, down. Down, down, down, down...]
post chorus: (Down, down, down, down. Down, down, down, down...)

G|---------------------------------------------||
D|---------------------------------------------||
A|---------------------------------------------||
E|-7777777777-0000000000-4444444444-0000000000-||


Outro:

G|------||
D|------||
A|------||  <--repeat until end
E|-7~~~-||


www.dillholevideos.com <-be there or be square..haha <@:oP


==== ==== ==== ==== ==== ==== ==== ==== ==== ==== ==== ==== ====
_ALTERNATE'S KEY_

*-Alternates
    -[1] Piano Outro

*-Live Alternates
    -[1L] Live Verse II
    -[2L] Live Outro Chorus
    -[3L] Live Outro

==== ==== ==== ==== ==== ==== ==== ==== ==== ==== ==== ==== ====
[1]

Piano Outro:

G|-------16~~-------16~~----||
D|----16~~--16~~-------16~~-||
A|-14~~----------14~~-------||  <--repeat until end
E|--------------------------||

==== ==== ==== ==== ==== ==== ==== ==== ==== ==== ==== ==== ====
[1L]

Live Verse II: (Your vowes of silence fall all over. The look in your...)

G|------------------------------------------------||
D|------------------------------------------------||
A|------------------------------------------------||
E|-7777777777-444-6666666-77777777777-444-6666666-||

live verse II: (I feel the darkness break upon her. I'll take you...)

G|---------------------------------------------------||
D|---------------------------------------------------||
A|-6~2-22222-2~6------------6~2-22222-2~6------------||
E|---------------4444-66666---------------4444-66666-||

==== ==== ==== ==== ==== ==== ==== ==== ==== ==== ==== ==== ====
[2L]

Outro Chorus: (Down, down, down, down. Down, down, down, down...)

G|-4444444444-4444444444-8888888888-4444444444-||
D|-xxxxxxxxxx-4444444444-6666666666-2222222222-||
A|-2222222222----------------------------------||
E|---------------------------------------------||

outro chorus: (Down, down, down, down. Down, down, down, down...)

G|-4444444444-4444444444-8888888888-4444444444-||
D|-xxxxxxxxxx-4444444444-6666666666-2222222222-||
A|-2222222222----------------------------------||
E|---------------------------------------------||

==== ==== ==== ==== ==== ==== ==== ==== ==== ==== ==== ==== ====
[3L]

Outro:

G|--4--4-4---4--4-4---8--8-8---4--4-4--||
D|----------4-44-4-4-6-66-6-6-2-22-2-2-||
A|-2-22-2-2----------------------------||
E|-------------------------------------||

outro:

G|--4--4-4---4--4-4---8--8-8---4--4-4--||
D|----------4-44-4-4-6-66-6-6-2-22-2-2-||
A|-2-22-2-2----------------------------||
E|-------------------------------------||

outro:

G|--4--4-4---4--4-4---8--8-8---4--4-4--||
D|----------4-44-4-4-6-66-6-6-2-22-2-2-||
A|-2-22-2-2----------------------------||
E|-------------------------------------||

outro:

G|--4--4-4---4--4-4---8--8-8---4--4-4--||
D|----------4-44-4-4-6-66-6-6-2-22-2-2-||
A|-2-22-2-2----------------------------||
E|-------------------------------------||

outro:

G|-4444444444-4444444444-8888888888-4444444444-||
D|-xxxxxxxxxx-4444444444-6666666666-2222222222-||
A|-2222222222----------------------------------||
E|---------------------------------------------||

outro:

G|-4444444444-4444444444-8888888888-4444444444-||
D|-xxxxxxxxxx-4444444444-6666666666-2222222222-||
A|-2222222222----------------------------------||
E|---------------------------------------------||

outro:

G|--4--4-4---4--4-4---8--8-8---4--4-4--||
D|----------4-44-4-4-6-66-6-6-2-22-2-2-||
A|-2-22-2-2----------------------------||
E|-------------------------------------||

outro:

G|--4--4-4---4--4-4---8--8-8---4--4-4--||
D|----------4-44-4-4-6-66-6-6-2-22-2-2-||
A|-2-22-2-2----------------------------||
E|-------------------------------------||


        www.dillholevideos.com 

  development and support by
dmitry ivanov