rock
 
|tablatures   |lyrics   |discussion forums   |more tabs @ XGuitar.com

Blink_182 tabs

Dont Tell Me Its Over guitar tab

Blink 182 - Don't tell me that its over

*:let it ring
!:slash 2 times

VERSE 1

C *
I hear the the phone it ring so violently
C !
Cant leave my room can believe she left me
C *
I will admit i hate those thing i said
C !
Girls always cry,guy never admit they did


 C*     G*   F* C*      G*   F*
Hold on Hold on Hold on Hold on


CHORUS

C                                 G                     F
Don't tell me that its over       i'm not use to this temptation
C                                 G                      F
And when u come back runnin       theres no use for  explaination
C	                         G                       F
I think things are to hopeful     even with my expert knowledge
C	                         G	                       F
Most girls are still in trouble   because there're really honest


BRIDGE 

E---------------------------------------------------------- 
B---------------------------------------------------------- 
G---------------------------------------------------------- 
D---2---2-5-3-2-------2---3-2------------------------------ 
A-3---3-------------3---3-----3---------------------------- 
E----------------------------------------------------------


VERSE 2:

C	                G                    F	
Whats with the joke     all the routine they play
C                        G                              F
Screw with my head     never care until they get their way
C	                G                       F
Guys  like  to  run,   chicks love to yell you see
C	                G                  F
Guys hate to fight,    girls thinks  its  therapy


C*       G*   F* C*     G*    F*
Hold  on Hold on  Hold on Hold on


CHORUS:

C	                      G	              F
Dont tell me that its over     im not use to this temptation
C                              G	               F
And when u come back runnin    theres no use for explaination
C	    	             G                      F
I think things are to hopeful  even with my expert knowledge
C	                      G	                    F
Most girls do bring trouble    because they are really honest

Bridge
E---------------------------------------------------------- 
B---------------------------------------------------------- 
G---------------------------------------------------------- 
D---2---2-5-3-2-------2---3-2------------------------------ 
A-3---3-------------3---3-----3---------------------------- 
E----------------------------------------------------------

Interlude
E---------------------------------------------
B--------------------------------------------- 
G--------------------------------------------- 
D--------------------------------------------- X4 
A-3-3-3-3-3-3-3-3-3-3-3-3-3------------------- 
E---------------------------3-3-3-3-1-1-1-1--- P.M

Hold on  Hold on Hold on Hold on

CHORUS x2

C*
Dont tell me thats its over im not use to this temptation      


this song's cool but not many tab  of it
any problem email lofu_182@hotmail.com
  development and support by
dmitry ivanov