rock
 
|tablatures   |lyrics   |discussion forums   |more tabs @ XGuitar.com

Blink_182 tabs

Dont Leave Me guitar tab

"Dont Leave Me"
Artist: Blink 182
Album: Enema of the State, 1999
Tabbed by Ed Monahan, iCHiBAN_enTeRPRISeS@hotmail.com
This tab is all my own work.

This is the best and easyist way to play 'Dont leave me'

in this song there is lots of fast playing (tikatikas) 8th notes and 
stuff... the tikatikas will be symbolised by * (star) when doing teh tikatikas... 
do not put any pressure on the srings... if you have heard the song 
you will understad what i mean...
so bare with me...

Intro:

E-------------------------------------------------------------------------
B-------------------------------------------------------------------------
G-------------------------------------------------------------------------
D-------------------------------------------------------------------------
A-*7-7-7-7-7-*7--12-12-12-12--*12--9-9-9-9--12-12-12-12--14-14-14-14-*14--
E-*5-5-5-5-5-*5--10-10-10-10--*10--7-7-7-7--10-10-10-10--12-12-12-12-*12--Repeat twice

Second Part:

E-------------------------------------------------------------------------]
B-------------------------------------------------------------------------]
G-------------------------------------------------------------------------]
D-------------------------------------------------------------------------]
A-*7-7-7-7--9-9-9--12-12-12--14-14-14--7-7-7--9-9-9--12-12-12--14-*14-----]
E-*5-5-5-5--7-7-7--10-10-10--12-12-12--5-5-5--7-7-7--10-10-10--12-*12-----]
continued                                                                 I-- repeat twice
E-------------------------------------------------------------------------]
B-------------------------------------------------------------------------]
G-------------------------------------------------------------------------]
D-------------------------------------------------------------------------]
A-7-7-7--9-9-9--12-12-12--14-14-14--7-7-7--9-9-9--12-12-12--14-14-14-14-14]
E-5-5-5--7-7-7--10-10-10--12-12-12--5-5-5--7-7-7--10-10-10--12-12-12-12-12]

well that is just about it if you have heard this song you will know how to 
play it... its very easy...

if you want more Blink -182- tab email me:
ichiban_enterprises@hotmail.com
  development and support by
dmitry ivanov