rock
 
|tablatures   |lyrics   |discussion forums   |more tabs @ XGuitar.com

Blink_182 tabs

Dont Leave Me bass tab

Band: blink 182
Song: Don't Leave Me
Album: Enema of the State

Intro:
G:-----------------------------------------------------------------
D:-----------------------------------------------------------------
A:-xxxx-0-0-0-0-0-xxxx-5-5-5-5-5-xxxx-2-2-2-2-2--5-5-5-5--7-7-7-7--
E:-----------------------------------------------------------------

Verse:
G:--------------------------------------------------------------------
D:--------------------------------------------------------------------
A:-0-0-0-0-0-0-0-0--5-5-5-5-5-5-5-5--2-2-2-2-2-2-2-2-5-5-5-5-5-5-5-5--
E:--------------------------------------------------------------------

Chorus:
G:--------------------------------------
D:--------------------------------------
A:-0-0-0-0--2-2-2-2--5-5-5-5--7-7-7-7---
E:--------------------------------------

Bridge:
G:-------------------------------------------
D:-------------------------------------------
A:-0-0-0-0-0--7-7-7-7--5-5-5-5-5-5-5-5-5-5---
E:-------------------------------------------

That's the entire song...the bridge is correct this time

TAB: Matt Nielsen  zorg500@hotmail.com
  development and support by
dmitry ivanov