rock
 
|tablatures   |lyrics   |discussion forums   |more tabs @ XGuitar.com

Blink_182 tabs

Dont guitar tab

-----------------------------------------------------------------------
                        Don't - Blink 182
-----------------------------------------------------------------------

By:Lando

> = slide

Intro
e:---2-2-0-0-2-2---2-2-0-0------|
B:-3-------------3---------3-3--|
G:------------------------------|
D:------------------------------|
A:------------------------------|
E:------------------------------|

RIFF 1
e:---2-2---2-2---2-2---2-2------|
B:-3-----------3-----5----------|
G:------------------------------|
D:-------5----------------------|
A:------------------------------|
E:------------------------------|

RIFF 2       
e:------------------------------|
B:-3-5-3-3>>>-3-3>>>-3-3>>>-3-3-|
G:------------------------------|
D:------------------------------|
A:------------------------------|
E:------------------------------|

RIFF 3
e:-----2-3-2---------2----------|
B:-3-5-------5---3-5---5-3-3----|
G:------------------------------|
D:------------------------------|
A:------------------------------|
E:------------------------------|

RIFF 4
e:-----2-3---------2------------|
B:-3-5-----5---3-5---3----------|
G:------------------------------|
D:------------------------------|
A:------------------------------|
E:------------------------------|

ORDER

	Intro
	RIFF 1
	Intro
	RIFF 2
       -SILENCE-
	RIFF 3
	RIFF 4

-------------------------------------------------------------------------------
  development and support by
dmitry ivanov