rock
 
|tablatures   |lyrics   |discussion forums   |more tabs @ XGuitar.com

Blink_182 tabs

Does My Breath Smell guitar tab

Artist: Blink 182 
Song: Does My Breath Smell? 
Album: Cheshire Cat
Tabbed By : Rishesh Singh (XtremeDimon@icqmail.com) 

Prelude Thing: Who makes up... 
e|---------------| 
B|---------------| 
G|--5---------4--| 
D|--5---5--7--4--| 
A|--3---5--7--2--| 
E|------3--5-----| 

INTRO: 
e|--------------------------------------------------------| 
B|------5-6-5------5-6-5---------5-6-5--------5-6-5-------| 
G|--5---------5------------5---5---------5-------------5--| 
D|--5-------------3------------5-------------5------------| 
A|--3-------------3------------3-------------5------------| 
E|----------------1--------------------------3------------| 

VERSES: 
e|-------------------------------------| 
B|-----------5-----------------5-------| 
G|--5---4----5----4----5----4--5-------| 
D|--5---4----3----4----5----4--3----5--| 
A|--3---2---------2----3----2-------5--| 
E|----------------------------------3--| 

CHORUS: 
e|------------------------------------| 
B|------------------------------------| 
G|-----------5---2-----------5--------| 
D|---3---5---5---2---3---5---5--------| 
A|---3---5---3---0---3---5---3--------| 
E|---1---3-----------1---3------------| 

  development and support by
dmitry ivanov