rock
 
|tablatures   |lyrics   |discussion forums   |more tabs @ XGuitar.com

Blink_182 tabs

Dick Lips guitar tab

Dick Lips - Guitar Tabs - www.jcblink182.fr.st


Intro/Verse "Please mom....":

G:---------------------------------------------------------------
D:---------------------------------------------------------------
A:0-0-0-0-0-0-0-0-0-0-0-0-0-0-5-5-5-5-5-5-5-5-7-7-7-7-7-7-7-7-7-7
E:---------------------------------------------------------------

Chorus (end on E):

G:---------------------------------------------------------------
D:---------------------------------------------------------------
A:4-4-4-4-4-4-4-4-5-5-5-5-5-5-5-5-0-0-0-0-0-0-0-0-7-7-7-7-7-7-7-7
E:---------------------------------------------------------------

Part right after Chorus:

G:------------------------------------
D:------------------------------------
A:-4-4-4-4-4-4-5-5-5-5-5-5-7-7-7-7-7-7
E:------------------------------------

Part with the Tempo change right after Tom screams "right!":

G:--------------------------------------
D:--------------------------------------
A:0-0-0-0-0-0-0--5--4--7-7-7-7-5-5-5-5-5
E:--------------------------------------
  development and support by
dmitry ivanov