rock
 
|tablatures   |lyrics   |discussion forums   |more tabs @ XGuitar.com

Blink_182 tabs

Dick Lips bass tab

Band: blink 182
Song: Dick Lips
Album: Dude Ranch
Tabbed by: Matt Nielson
Corrections by Stewart Sheppard (  hawk@ turok.com)

Intro/Chorus
G:--------------------------------------------------------------------
D:--------------------------------------------------------------------
A:-4-4-4-4-4-4-4-4--5-5-5-5-5-5-5-5--0-0-0-0-0-0-0-0--7-7-7-7-7-7-7-7-
E:--------------------------------------------------------------------

Verse
G:-----------------------------------------------------------------
D:-----------------------------------------------------------------
A:-------------------------------7-7-7-7-7-7-7-7--5-5-5-5-5-5-5-5--
E:-5-5-5-5-5-5-5-5-5-5-5-5-5-5-5-----------------------------------

Before Tom Screams "Right"
G:------------------------------------------------
D:------------------------------------------------
A:-----4-4-4-4--5-5-5-5--7-7-7-7-7-7-7-7-7--------
E:------------------------------------------------



After Tom sreams "Right"
G:------------------------------------------------
D:------------------------------------------------
A:---------------5-4-----------5-5-5-5-5-5-5-5-5--
E:-5-5-5-5-5-5-5-----0-0-0-0-0--------------------
  development and support by
dmitry ivanov