rock
 
|tablatures   |lyrics   |discussion forums   |more tabs @ XGuitar.com

Blink_182 tabs

Degenerate guitar tab

Verse #1                                           
   Bb      F      D      C                            
   Bb      F      D      C

e-------------------------------  Repeat 4 times -------------------------
B-------------------------------------------------------------------------
G----------------------------------3----------------------7--------5------
D--3----------------7-------5---3-----------3----------7--------5---------
A--1-------3-------5-------3--1-----------3----------5--------3-----------
E--x-------1-------x-------x--x---------1------------x--------x-----------

Chorus (fast part)

    Bb              F            Eb                F
e----------------------------------------------------------------- Repeat 4 times
B-----------------------------------------------------------------
G--3-3-3-3-------------------8-8-8-8------10-10-10-10-------------
D--3-3-3-3----3-3-3-3-----8-8-8-8------10-10-10-10----------------
A--1-1-1-1----3-3-3-3-----6-6-6-6--------8- 8-  8- 8--------------
E----------------1-1-1-1------------------------------------------

Repeat Verse #1 4 times, then #2 4 times

Then play the fast part 8 times.

If your confused just play along with the CD, its a pretty easy song, at least
I think so.
  development and support by
dmitry ivanov