rock
 
|tablatures   |lyrics   |discussion forums   |more tabs @ XGuitar.com

Blink_182 tabs

Boring guitar tab

Band: blink 182
Song: Boring
Album: Dude Ranch

Intro:(w/distortion)
E:-----------------------------------
B:-----------------------------------
G:-----------------------------------
D:-----------------------------------
A:-0-4-0-0-5-0-4-0--0-2-0-0-5-0-4-2--
E:-----------------------------------

Verse:(A5,D5)
E:---------------------
B:---------------------
G:------------7--7--7--
D:-7--7--7----7--7--7--
A:-7--7--7----5--5--5--
E:-5--5--5-------------

Chorus:(A5,C#5,Ab5,D5,E5)
E:-----------------------------
B:-----------------------------
G:-----6--6-----------7--9--9--
D:--7--6--6--6--6--6--7--9--9--
A:--7--4--4--6--6--6--5--7--7--
E:--5--------4--4--4-----------

Bridge:
E:----------------------------------------------------
B:----------------------------------------------------
G:----------------------------------------------------
D:--7-7-7-6-6-6--------------------6-6-6--------------
A:--------------7-7-7-7-7-7--5-5-5-------7-7-7-7-7----
E:--------------------------------------------------5-

Outro:
Repeat chorus

By:Matt Nielsen zorg500@hotmail.com
  development and support by
dmitry ivanov