rock
 
|tablatures   |lyrics   |discussion forums   |more tabs @ XGuitar.com

Blink_182 tabs

Anthem Part 2 guitar tab

Intro
------------------
-8-8-6-6-5-5-6-6--
--5-5-5-5-5-5-5-5-
------------------
------------------
------------------

-------------------------------------------
-------------------------------------------
-------------------------------------------
-------2h3--2----2h3---2---2h3--2---0---0--
----33--------33---------33-------33--33---
-------------------------------------------

---------------------------------------------------------------
---------------------------------------------------------------  
-9-10--9--5--7----9-10--9--5--7---7-10--9--5--7----9-10--5~~~~-  
---------------------------------------------------------------  
-7--8--7--3--5----7--8--7--3--5---7--8--7--3--5----7--8--3~~~~-  
---------------------------------------------------------------

Verse
--------------- 
---------------  
-5-------------  
-x-------------Hold
-3-------------  
---------------

-----------------------------------------------------------------
-----------------------------------------------------------------  
-----------------------------------------------------------------  
-5-5-5-5-5-5-5-5-5-5-5-5-5-5-5-5---------------------------------  
-3-3-3-3-3-3-3-3-3-3-3-3-3-3-3-3-7-7-7-7-7-7-7-7-5-5-5-5-5-5-5-5-  
---------------------------------5-5-5-5-5-5-5-5-3-3-3-3-3-3-3-3-

Chorus
-----------------------------------------------------------------
-----------------------------------------------------------------  
-----------------------------------------------------------------  
---------------------------------5-5-5-5-5-5-5-5----------------- 
-7-7-7-7-7-7-7-7-3-3-3-3-3-3-3-3-3-3-3-3-3-3-3-3-5-5-5-5-5-5-5-5-  
-5-5-5-5-5-5-5-5-1-1-1-1-1-1-1-1-----------------3-3-3-3-3-3-3-3-
  development and support by
dmitry ivanov