rock
 
|tablatures   |lyrics   |discussion forums   |more tabs @ XGuitar.com

Blink_182 tabs

Anthem Part 2 bass tab

Blink 182:Anthem Part Two
Intro x1
G|--------------------------------------------------------------------
D|--------------------------------------------------------------------
A|--3333----3333----3333----55555555-00000000-88888888----------------
E|--------------------------------------------------------------------

Intro Pt. 2 x5
G|--------------------------------------------------------------------
D|--------------------------------------------------------------------
A|--33333333-55555555-00000000-88888888-------------------------------
E|--------------------------------------------------------------------

Pre-Verse x2
G|-------------------------------------------------------------|
D|-------------------------------------------------------------|
A|-3333333333333333-0000000---------3333333333333333-00000000--|
E|--------------------------11111111-------------------------1r|

Verse x2
G|----------------------------------------------------------------------
D|----------------------------------------------------------------------
A|--3333333333333333-00000000---------3333333333333333-00000000-88888888
E|---------------------------11111111-----------------------------------

Fill In x1
G|----------------------
D|---14------12-----10r-
A|-12---12-10--10-8-----
E|----------------------

Verse x2
G|----------------------------------------------------------------------
D|----------------------------------------------------------------------
A|--3333333333333333-00000000---------3333333333333333-00000000-88888888
E|---------------------------11111111-----------------------------------

Fill In x1
G|----------------------
D|---14------12-----10r-
A|-12---12-10--10-8-----
E|----------------------

Chorus Pt 1 x2   
G|-----------------------------------|
D|-----------------------------------|
A|-------------------33333333--------|
E|-00000000-11111111---------33333333|

Chorus Pt 2 x1
G|-------------------------------------------|
D|-------------------------------------------|
A|-00000000--------33333333--------00000000--|
E|---------11111111--------33333333---------1|



Pre-Verse x2
G|-------------------------------------------------------------|
D|-------------------------------------------------------------|
A|-3333333333333333-0000000---------3333333333333333-00000000--|
E|--------------------------11111111-------------------------1r|

Verse x2
G|--------------------------------------------------------------------|
D|--------------------------------------------------------------------|
A|-3333333333333333-00000000--------3333333333333333-00000000-88888888|
E|--------------------------11111111----------------------------------|

Fill In x1
G|-------------------|
D|---14-----12----10r|
A|-12--12-10--10-8---|
E|-------------------|

Chorus Pt 1  x2
G|----------------------------------|
D|----------------------------------|
A|------------------33333333--------|
E|-00000000-11111111--------33333333|

Chorus Pt2 x1
G|------------------------------------------|
D|------------------------------------------|
A|-00000000--------33333333--------00000000-|
E|---------11111111--------33333333--------1|

Bridge Pt 1 x2
G|-----------------------------------|
D|-----------------------------------|
A|-3-333333-3-333333-0-000000--------|
E|---------------------------1-111111|

Bridge Pt 2 x1
G|----------------------------------------------------------------------|
D|----------------------------------------------------------------------|
A|-3-333333-3-333333-0-000000--------3-333333-3-333333-0-000000-8-888888|
E|---------------------------1-111111-----------------------------------|

Bridge Pt 3 x1
G|----17----17----17----17----17----17----17----17|
D|-17-17-17-17-17-17-17-17-17-17-17-17-17-17-17-17|
A|------------------------------------------------|
E|------------------------------------------------|

Chorus Pt1 x2
G|-----------------------------------|
D|-----------------------------------|
A|-------------------33333333--------|
E|-00000000-11111111---------33333333|




Chorus Pt2 x1
G|------------------------------------------|
D|------------------------------------------|
A|-00000000--------33333333--------00000000-|
E|---------11111111--------33333333--------1|

Outro  Pt1 x1
G|-------------------------------------------------------------------|
D|-------------------------------------------------------------------|
A|-3333333333333333-0000000---------3333333333333333-00000000--------|
E|--------------------------11111111-------------------------11111111|

Outro Pt2 x2
G|----------------------------------------------------------------|
D|----------------------------------------------------------------|
A|-33333333-55555555-00000000---------33333333-55555555-00000000--|
E|---------------------------11111111---------------------------1r|
  development and support by
dmitry ivanov