rock
 
|tablatures   |lyrics   |discussion forums   |more tabs @ XGuitar.com

Blink_182 tabs

All The Small Things bass tab

Song: All The Small Things
Band: Blink 182
Tabbed By: drifft

Here is how this song is actually played....for real!
The song is quite fast and is mainly eighth notes, with the interlude being
half and quarter notes.

Intro
G:|-----|
D:|-----|
A:|-----|
E:|-3-1-|

Main Riff
G:|-----------------|-----------------|-----------------|-----------------|
D:|-----------------|-----------------|-----------------|-----------------|
A:|-3-3-3-3-3-3-3-3-|-3-3-3-3-3-3-3-5-|-----------------|-----------------|
E:|-----------------|-----------------|-3-3-3-3-3-3-3-3-|-3-x-x-x-x-1-1-1-|

Verse
G:|-----------------|-----------------|-----------------|-----------------|
D:|-----------------|-----------------|-----------------|-----------------|
A:|-3-3-3-3-3-3-3-3-|-----------------|-----------------|-----------------|
E:|-----------------|-3-3-3-3-3-3-3-3-|-1-1-1-1-1-1-1-1-|-3-3-3-3-3-3-3-3-|

Pre-Chorus
G:|-----------------|-----------------|-------------------------|-----------------|
D:|-----------------|-----------------|-------------------------|-----------------|
A:|-3-3-3-3-3-3-3-3-|-3-3-3-3-3-3-3-3-|-10-10-10-10-10-10-10-10-|-8-8-8-8-8-8-8-8-|
E:|-----------------|-----------------|-------------------------|-----------------|

Chorus
G:|-----------------|-----------------|-----------------|-----------------|
D:|-----------------|-----------------|-----------------|-----------------|
A:|-3-3-3-3-3-3-3-3-|-3-3-3-3-3-3-3-3-|-----------------|-----------------|
E:|-----------------|-----------------|-3-3-3-3-3-3-3-3-|-1-1-1-1-1-1-1-1-|

Interlude
G:|-------------------|-------------------|-------------------|
D:|-------------------|-------------------|-------------------|
A:|-3-------8---10----|-3-------8---10----|-3-------8---10----|
E:|-------------------|-------------------|-------------------|

Interlude continued
G:|-----------------|-----------------|-----------------|-------------------------|
D:|-----------------|-----------------|-----------------|-------------------------|
A:|-3-3-3-3-3-3-3-3-|-3-3-3-3-3-3-3-3-|-8-8-8-8-8-8-8-8-|-10-10-10-10-10-10-10-10-|
E:|-----------------|-----------------|-----------------|-------------------------|

Outro							 Play Fill here 2nd time through
G:|-----------------|-----------------|-----------------|-----------------|
D:|-----------------|-----------------|-----------------|-----------------|
A:|-3-3-3-3-3-3-3-3-|-3-3-3-3-3-3-3-3-|-----------------|-----------------|
E:|-----------------|-----------------|-3-3-3-3-3-3-3-3-|-x-x-1---x-x-1---|

Outro Fill
G:|-----------------|-----------------|----|
D:|-----------------|-----------------|----|
A:|-----------------|-----------------|-3--|
E:|-x-x-1---x-x-1---|-x-x-1---x-x-1---|----|

Song Order:
Intro x1
Main Riff x2
Verse x4
Prechorus x1
Chorus x2
Main Riff x2
Verse x2
Prechorus x1
Chorus x2
Interlude x1
Chorus x2
Outro x1

Please don't change this one again....email me if you can prove this tab 
is played some other way -- drifftware@hotmail.com
  development and support by
dmitry ivanov