rock
 
|tablatures   |lyrics   |discussion forums   |more tabs @ XGuitar.com

Blink_182 tabs

All Of This guitar tab

Band: Blink 182
Song: All Of This
Album: Blink 182
copyright: Geffen Records
Tabber: John Heward

I guarantee this is 100% correct
and I did it all by myself.

reg. tuning

/=slide up \=down

Intro
e|-----------------------------------------------|
b|-----------------------------------------------|
g|-----------------------------------------------|
d|-4--6-7-9-7-7-9-11-11-12-9-9--4--6-7-9-7---7~~-|(2x)
a|-x--x-x-x-x-x-x-x---x--x-x-x--x--x-x-x-x---x---|
E|-2//4-5/7\5-5/7/9---9/10\7-7--2//4-5/7\5---5~~-|
   ^    ^     ^       ^      ^  ^    ^       ^
only hit the notes that have arrows pointing at
them, slide the rest.

Verse:

e|--------------------------------|
b|--------------------------------|
g|------------------444--666--7---|
d|-444444444444444--xxx--xxx--x---|
a|-xxxxxxxxxxxxxxx--222--444--5---|(4x)
E|-222222222222222----------------|

Chorus:
Use me holly come on and use me...........
e|----------------------------------------|
b|----------------------------------------|
g|----------------------------------------|
d|-4444444444--2222--7777777777777777777--|(2x)
a|-xxxxxxxxxx--xxxx--xxxxxxxxxxxxxxxxxxx--|
E|-2222222222--0000--5555555555555555555--|

Pre-verse
e|----------------------------------------------|
b|----------------------------------------------|
g|----------------------------------------------|
d|----------------------------------------------|(2x)
a|---------------------------------------0------|
E|-2h4-5/7\5-5/7/9-9/10\7-7--2h4-5/7\5---5~~~~--|
   ^   ^     ^     ^      ^  ^   ^       ^
Verse 2
e|--------------------------------|
b|--------------------------------|
g|------------------444--666--7---|
d|-444444444444444--xxx--xxx--x---|(4x)
a|-xxxxxxxxxxxxxxx--222--444--5---|
E|-222222222222222----------------|

Chorus:
Use me holly come on and use me...........
e|----------------------------------------|
b|----------------------------------------|
g|----------------------------------------|
d|-4444444444--2222--7777777777777777777--|(2x)
a|-xxxxxxxxxx--xxxx--xxxxxxxxxxxxxxxxxxx--|
E|-2222222222--0000--5555555555555555555--|

Bridge:
e|-------------------------------------------------|
b|-------------------------------------------------|
g|-------------------------------------------------|
d|-------------------------------------------------|(2x)
a|-------------------------------------------------|
E|-2h4-5/7\5-5/7/9-9/10\7---2h4-5/7\5-5/7/9-9/10\7-|
   ^   ^     ^     ^        ^   ^     ^     ^
e|-------------------------------------------|
b|-------------------------------------------|
g|-------------------------------------------|
d|-----7----7----7---66----7----7----7---77--|(x4)
a|-------------------------------------------|
E|--55---55---55---4----55---55---55---9-----|

Chorus:
e|----------------------------------------|
b|----------------------------------------|
g|----------------------------------------|
d|-4444444444--2222--7777777777777777777--|(2x)
a|-xxxxxxxxxx--xxxx--xxxxxxxxxxxxxxxxxxx--|
E|-2222222222--0000--5555555555555555555--|

Bridge 2:
e|-------------------------------------------------|
b|-------------------------------------------------|
g|-------------------------------------------------|
d|-------------------------------------------------|(2x)
a|-------------------------------------------------|
E|-2h4-5/7\5-5/7/9-9/10\7---2h4-5/7\5-5/7/9-9/10\7-|
   ^   ^     ^     ^        ^   ^     ^     ^
e|---------------------------------|
b|---------------------------------|
g|--66666666666666--444--666~------|
d|--xxxxxxxxxxxxxx--xxx--xxx~---7--|(2x)
a|--44444444444444--222--444~---x--|
E|------------------------------5--|

Outro:
e|--------------------------------|
b|--------------------------------|
g|------------------444--666--7---|
d|-444444444444444--xxx--xxx--x---|(4x)
a|-xxxxxxxxxxxxxxx--222--444--5---|
E|-222222222222222----------------|
  development and support by
dmitry ivanov