rock
 
|tablatures   |lyrics   |discussion forums   |more tabs @ XGuitar.com

Blink_182 tabs

Aliens Exist bass tab

Band: blink 182 Song: Aliens Exist Album: Enema of the State 
The Tab Matt made was good, and helped me figure out this one, but there were parts that were wrong and some were missing. 
(Drums Intro)
GUITAR/BASS ENTRANCE:
G:--------------------------
D:--------------------------
A:---22222222-444-666-
E:---------------------------
VERSE:
(Play twice)
G:-------------------------------------------------------------------- 
D:-------------------------------------------------------------------- 
A:-2-2-2-2-2-2-2-2---------------------------------------------------- 
E:-----------------2-2-2-2-2-2-2-2--4-4-4-4-4-4-4-4--0-0-0-0-0-0-0-0-
(Play once)
G:-------------------------------------------------------------------- 
D:-------------------------------------------------------------------- 
A:-2-2-2-2-2-2-2-2--4-4-4-4-4-4-4-4----------------------------------- 
E:----------------------------------4-4-4-4-4-4-4-4--0-0-0-0-0-0-0-0-
(Play once)
G:-------------------------------------------------------------------- 
D:-------------------------------------------------------------------- 
A:-2-2-2-2-2-2-2-2---------------------------------------------------- 
E:-----------------2-2-2-2-2-2-2-2--4-4-4-4-4-4-4-4--0-0-0-0-0-0-0-0-

BREAK IN VERSE/PRE VERSE 2 
G:-------------------------------------------- 
D:-------------------------------------------- 
A:-2-2-2-2-2---------------------------------- 
E:-----------0-0-0-0-0--4-4-4-4-4--0-0-0-0-0-
VERSE

CHORUS:
(Play Twice)
G:----------------------------------
D:----------------------------------
A:---2-2-2-2-2-2-6-7-9-9-9-9-9-
E:-----------------------------------
(Play Twice)
G:------------------------------
D:------------------------------
A:------------------------------
E:---444444-22-00000000-

"I'm not like you guys.." (Play Twice)
G:--------------
D:-------------- 
A:---------2~--- 
E:--2~--0~------ 
BREAK IN VERSE/PRE VERSE
 
VERSE


CHORUS
GUITAR "SOLO" PART 
(Play Once)
G:-----------------------------------------------------
D:-----------------------------------------------------
A:-22222222----------------------------------------
E:- ------------22222222-44444444-7777-2222-
(E:-7777- can  be replaced by A:-2222-
Play Once
G:
D:
A:
E:44444444-22222222-00000000-7777-222

"Dark and scary.."
G:-------------------------------------------------------------------- 
D:-------------------------------------------------------------------- 
A:-------------------------------------------------------------------- 
E:-4-4-4-4-4-4-4-4--2-2-2-2-2-2-2-2--0-0-0-0-0-0-0-0------
G:---------------------
D:---------------------
A:---------------------
E:-7-7-7-7-0-0-0-0-
CHORUS

OUTRO: 
G:------------ 
D:------------ 
A:--------2~-- 
E:-2~--0~----- 
Original Tab: Matt Nielsen zorg500@hotmail.com 
Tab Correcton: Will S. Bassist for Wanted 1-3-10 Wanted1310Bass@AOL.com
  development and support by
dmitry ivanov