rock
 
|tablatures   |lyrics   |discussion forums   |more tabs @ XGuitar.com

Blink_182 tabs

21 Days guitar tab

-------------------------------------------------------------------------------
			    21 DAYS - Blink-182
-------------------------------------------------------------------------------

Song: 21 Days
Tabbed By:VMike311@aol.com 

Intro: Clean / slide

1:-----------------------------------------------------------------------------
2:-----------------------------------------------------------------------------
3:-7---11---7--7----11--11-----7---11----9---9--7--7---------------------------
4:-----------------------------------------------------------------------------
5:-----------------------------------------------------------------------------
6:-----------------------------------------------------------------------------

Intro 2: distortion / slide
1:-----------------------------------------------------------------------------
2:-----------------------------------------------------------------------------
3:-7-7-7-7--11-11-11----7-7-7---11-11----7-7-7-7---11-11-11--9-9-9--7-7--------
4:-----------------------------------------------------------------------------
5:-5-5-5-5---9--9--9----5-5-5---9---9----5-5-5-5---9--9--9---7-7-7--5-5--------
6:-----------------------------------------------------------------------------

Verse: distortion
1:---------------------------------------
2:---------------------------------------
3:--777777-------------------------------
4:--777777---7-7----555555----4-4--------
5:--555555---7-7----555555----4-4--------
6:-----------5-5----333333----2-2--------
   
My mind wanders as Im trying not to fall in love with you..........INTRO 2

Verse 2: Distortion
1:-----------------------------------------------------------------------------
2:-----------------------------------------------------------------------------
3:--------------------------7-------7-------7-------7--------------------------
4:--777777---555555------------------------------------------------------------
5:--777777---555555---5-5-5---5-5-5---5-5-5---5-5-5----------------------------
6:--555555---333333------------------------------------------------------------
                  PM |......| |.....| |.....| |.....|
    
I can't help myself................

Ending 1:
1:-----------------------------------------------------------------------------
2:-----------------------------------------------------------------------------
3:--7--9--11--12--11--9-----7--9--11--9--7-7-----------------------------------
4:-----------------------------------------------------------------------------
5:-----------------------------------------------------------------------------
6:-----------------------------------------------------------------------------

Ending 2:
1:-----------------------------------------------------------------------------
2:-----------------------------------------------------------------------------
3:--7-7-7-7--9-9-9--11-11--12-12---11-11--9-9--7-7-7-7--9-9-9--11-11---9-9--7-7
4:-----------------------------------------------------------------------------
5:--5-5-5-5--7-7-7---9--9--10-10---9--9---7-7--5-5-5-5--7-7-7---9--9---7-7--5-5
6:-----------------------------------------------------------------------------

-------------------------------------------------------------------------------
  development and support by
dmitry ivanov