rock
 
|tablatures   |lyrics   |discussion forums   |more tabs @ XGuitar.com

Black Sabbath tabs

Wishing Well bass tab

Wishing Well
Black Sabbath - Heaven And Hell (1980)

note: "*"s are used to represent the same note X times (listen to the song).

Tune down 1/2 step

G------------------------9-9-------------------------------7-9p7---|
D----------------------------7h9------------------------/9-------9-|
A--/7-7-7\-----------------------/7-7-7---------5--5-5-------------|
E------------/7-7-5-5-5-------------------5h7-7--------------------|

  "I'll give you a star"
G-------5-------------------------------5-----------|
D---------5-------------4-----------------5---------|
A--3-3------3-5*----2*-----7*---5--3-3------3-5*----|
E---------------------------------------------------|

  "so let me fill myself with tears to cry"
G------------------------9-9-------------------------------|
D----------------------------7h9---------------------------|
A--/7-7-7\-----------------------/7-7-7-------------5-5-5--|
E------------/7-7-5-5-5-------------------/7-7-5--5--------|

  "Time is a..."                     "Love is a..."
G---------------------9-7h9*---7----|---------------------------------
D-----------------7h9------------9--|---------------------------------
A--10*---8*---7*--------------------|-10*---8--3---7*------7*---------
E-----------------------------------|------------------5h7------------
                                                                        

  "Give me a sign to build a dream on"
G---------------------9-11-9---------------------------
D-------------------9-^-------12-12-12-11-11-11-9-9-9--  back to
A--10*---8*---9--7--^-|--------^--^--^--^--^--^-^-^-^-- "dream on"
E-------------------|-|--------|--|--|--|--|--|-|-|-|--
                    play these very fast.-----------/
                    It's correct but I think there's something more on it

   1:54                           2:00
G--------------------------7h9-|----------------------------------
D----------------------7h9-----|----9-----------------------------  back to
A--7-7---9-9--10-9-7-5---------|--7-----9-9--10-9-7-5-----5h7----- "dream on"
E------7-----------------------|------7---------------5h7-----5---

   2:20
G----------------------------------------|
D----------------------------------------|
A-------5*---10-10-10---------------5*---|
E--5*-----------------8-9-10*--5*--------|

  "some day, some way..."
G-------5-----------------------------------------------
D---------5-------------------9-9-9--13-13-14-14-15-16--
A--3-3------3-5*--------6-7-8---------------------------
E-------------------7-7---------------------------------

   3:25                        "cause you know"
G-------5------------------------------5-------------|
D---------5-------------4----------------5-----------|
A--3-3------3-5*----2*-----7*---5--3-3-----3-5*-...--|
E----------------------------------------------------|

   end         hold note and slide down slowly
G--------------^---------||
D--------------^---------||
A--7\--7\--7\--7-\-------||
E---------------------0--||

  development and support by
dmitry ivanov