rock
 
|tablatures   |lyrics   |discussion forums   |more tabs @ XGuitar.com

Black Sabbath tabs

Who Are You guitar tab

Song: Who Are You?
Album: Sabbath, Bloody Sabbath
Artist: Black Sabbath

e|--------------------------------------------------------------
B|--------------------------------------------------------------
G|--------------------------------------------------------------
D|-(1/4)--65---(1/4)--65--65---(1/4)--65---(1/4)--65--65--------
A|-5^r5---------5^r5--------------5^r5---------5^r5-------------
E|--------------------------------------------------------------

e|--------------------------------------------------------------
B|--------------------------------------------------------------
G|--------------------------------------------------------------
D|-(1/4)--43---(1/4)--43--43---(1/4)--43---(1/4)--43--43--------
A|-3^r3---------3^r3--------------3^r3---------3^r3-------------
E|--------------------------------------------------------------

solo:
e|--10---10--13--8--7--5---- X2 ----|--7---8--10--13-------
B|----------------------------------|----------------------
G|----------------------------------|----------------------
D|----------------------------------|----------------------
A|----------------------------------|----------------------
E|----------------------------------|----------------------

e|--5---8--9--10--12--10--|--8--13--8--10---- X4 ----------
B|------------------------|--------------------------------
G|------------------------|--------------------------------
D|------------------------|--------------------------------
A|------------------------|--------------------------------
E|------------------------|--------------------------------
  development and support by
dmitry ivanov