rock
 
|tablatures   |lyrics   |discussion forums   |more tabs @ XGuitar.com

Black Sabbath tabs

Who Are You bass tab

Who Are You - Bass
Black Sabbath - Sabbath, Bloody Sabbath (1974)


tune down 1 1/2 steps low to high (C# F# B E)
          You don't have to tune down..but the whole album is so
          what the hell.
            Yes I know the secret..
          ||------------------------------------------------------------
          ||------9-8---------9-8-9-8---------9-8---------9-8-9-8-------
          ||-8-----------8---------------8-----------8---------------6--
          ||------------------------------------------------------------

          --------------------------------------------------|-----------
          --7-6---------7-6-7-6---------7-6---------7-6-7-6-|-----------
          ---------6---------------6-----------6------------|-6--6--6--8
          --------------------------------------------------|-----------

          --------------------------------------||That's all folks
          --------------------------------------||
          ----8----8----6--6--6--8----8----8----||
          --------------------------------------||
  development and support by
dmitry ivanov