rock
 
|tablatures   |lyrics   |discussion forums   |more tabs @ XGuitar.com

Black Sabbath tabs

Walk Away guitar tab

Walk Away
Black Sabbath - Heaven And Hell (1980)

|----------------------------------------------------------------
|-12--10\-------12-12-10--14-14----12--10\-------12-12-10--14-14-
|-12--11\-------12-12-11--14-14----12--11\-------12-12-11--14-14-
|-12--12\-------12-12-12--14-14----12--12\-------12-12-12--14-14-
|---------0-0-0-----------------00---------0-0-0-----------------
|----------------------------------------------------------------
                                                      *1*       *2*
|----------------------------------------------------------||----------
|----------------------------------------------------------||----------
|-------------14--12---------12-10-----10\9--7-------10\9--||-----5----
|-------------14--12---------12-10-----10\9--7-------10\9--||--7--5----
|-0-0-0-0-0-0--------0-0-0-0-----------------5-5-5-5-------||--7--3----
|----------------------------------------------------------||--5-------

"oh, walk away..."                    "she's lookin to love you"
|---------------------------------------------------------------------
|-----12-12-12-10--------8----8---------------------------------------
|-----12-12-12-11-----/9---/9---9\7-5-7------------7^^7-5---------5---
|-7---12-12-12-12--7------------------------5-----5---5---7---5-7---7-
|-7----------------7------------------------5-----5---5---7-----------
|-5----------------5--------------------3-3-3-3-3-3-3-3---5-----------
"there's nothing to say...just turn your head..."
|----------------------------------------------------------
|-14--12-10-2----------------------------------------------
|-14--12-11-2---5---5------------9-----9---9---------------
|-14--12-12-2-----7---7-5--------9-----9---9---------------
|-0-00------0-------------7------7-----7---7---------------
|----------------------------0-0-0-0-0-0-0-0------back to first riff

"cant see a fire..."
|----------------------------------------------------------
|--2---2-2---2----14--12-10-10--2---2-2---2--12--10--14--2-
|--2---2-2---2----14--12-11-11--2---2-2---2--12--11--14--2-
|--2---2-2---2----14--12-12-12--2---2-2---2--12--12--14--2-
|--0---0-0---0------------------0---0-0---0--------------0-
|----------------------------------------------------------
"its rising higher.............im walking the wire..."
|----------------------------------------------------------
|-2----2-2---2---14--12-10-10--2---2-2--2--12---10---------
|-2----2-2---2---14--12-11-11--2---2-2--2--12---11---------
|-2----2-2---2---14--12-12-12--2---2-2--2--12---12---------
|-0----0-0---0-----------------0---0-0--0------------------
|----------------------------------------------------------

|----------------------------------------------------------
|-12--12-12--10--10-10---10--10-10---8---8--8--------------
|-12--12-12--11--11-11---10--10-10---9---9--9--------------
|-12--12-12--12--12-12---10--10-10--10--10-10--------------
|----------------------0-----------------------------------
|----------------------------------------------------------

|----------------------------------------------------------
|---12--12-12--10-12-10-12-12-12-12-12-10------------------
|---12--12-12--11-12-11-12-12-12-12-12-11------------------
|---12--12-12--12-12-12-12-12-12-12-12-12------------------
|-0--------------------------------------------------------
|----------------------------------------------------------

|----------------------------------------------|------------
|----------------------------------------------|------------
|----------------------------------------------|------------
|--------3--------------------------3----------|----3-------(x 2)
|----3-5-----5---------3--------3-5----5--3----|------5-----
|--5---------------1----------5--------------5-|-3----------

***on 2nd time of above***
|------------------------------
|------------------------------
|--------------------------5---
|----3-----------/5-3----5-----
|------5-3------------/7-------
|-3--------5-4-3---------------


  development and support by
dmitry ivanov