rock
 
|tablatures   |lyrics   |discussion forums   |more tabs @ XGuitar.com

Black Sabbath tabs

Voodoo bass tab

Black Sabbath - Mob Rules
Voodoo

note: "*"s are used to represent the same note X times (listen to the song).
% = repeat previous bar

Tune down 1/2 step

   0:10 fill (I think so)
G----------------------
f--d-d-7-5------------- d= drum beat (wait then enter with the fill)
A----------7-5-7-3-5-3-
E----------------------

          0:14
G-----------------------------------7-5-------------
D-------------------5h7-----------------7-6-5-------
A---------------5h7----------3----------------7-6-5-
E--5*-----/8-5----------5*-----5-5------------------

  "Say you don't know me"
G-------------------------------------------------------------
D-----------------------------5h7-------------7-5-------------
A-------------------------5h7----------3----------7-5-7-3-5-3-
E--5*---3-0-3-4-5*--/8-5----------5*-----5-5------------------
        ^
        not sure about this

G-----------------------------------------------------------------
D-----------------------------5h7---------------------------------
A-------------------------5h7----------3--------55-5----55-5------
E--5*---3-0-3-4-5*--/8-5----------5*-----5-5---------3-------2-/--

back to beginning

  "Call me the Devil"
G-------------------------------------------------------
D-----------------------------5h7---------------7-5-----
A-------------------------5h7----------3------------7-5-
E--5*---3-0-3-4-5*--/8-5----------5*-----5-5------------

  "So if a stranger calls you..."                     1:23
G---------------------------------------------------------------------|
D-------------------------------7-5-------------------7-5-------------|
A--3--------------3-----------------7-5--3----------------7-5-7-3-5-3-|
E-----3-3-5*---------3-3-5*-----------------3-5-----------------------|

2:18 solo: play main riff etc

   3:11
G-------------------------------------------------7-5---7-5-----------------
D-----------------------------5h7-------------7-5-----7-----7---------------
A-------------------------5h7----------3----------------------55----55------
E--5*---3-0-3-4-5*--/8-5----------5*-----5-5---------------------3-----2-/--

   3:51
G---------------------------------------------9-7---7------------ etc until end
D-----------5h7---------------5h7-----------------9---9-7-5------ (Geezer plays
A-------5h7---------------5h7----------3-------------------------  some other
E--5*-----------5*--/8-5----------5*-----5-5-----------------5*--  fills)
  development and support by
dmitry ivanov