rock
 
|tablatures   |lyrics   |discussion forums   |more tabs @ XGuitar.com

Black Sabbath tabs

Virtual Death guitar tab

Virtual Death
Black Sabbath - Cross Purposes (1994)

Fgi A
|----------------------------------------------------------
|----------------------------------------------------------
|---------------9-9-8~---------------9---7~----------------
|--------------------------------7h9---9-------------------
|-2-2---2---2---7-7-6--2-2---2-------7---5-----------------
|-0-0---0---0----------0-0---0---5h7---7-------------------

*NOTE: the note played 1 octave higher are played on guitar II*

|----------------------------------------------------------
|----------------------------------------------------------
|---------------9-9-8~-------------------------------------
|------------------------------------5-6-------------------
|-2-2---2---2---7-7-6--2-2---2---2-2-----------------------
|-0-0---0---0----------0-0---0---0-0-3-4-------------------

fig B
"I'm sick and tired..."
|--------------------------------------
|--------------------------------------
|--------------------------------------
|--------------------------------------
|--------------------------------------
|-5--8-7-6------6-----6--3-4-5--8-7-6--

            "To keep myself in this state im in..."
|----------------------------------------------------------
|----------------------------------------------------------
|----------------------------------------------------------
|----------------------------------------------------------
|----------------------------------------------------------
|---6-----6--3-4-5-8-7-6----6-5-4-----4-3-2----------------

Fig C
|-----------------------------|-----------------------------
|-----------------------------|-----------------------------
|-----------------------------|-----------------------------
|------4-------3-----3-3-3--4-|-----4-----------------------
|--2---2---5---1-----1-1-1--2-|-2---2---5---4-----4-4-4--5--
|--0-------3------------------|-0-------3---2-----2-2-2--3--

"People always try to change me..."
|----------------------------|-----------------------------
|----------------------------|-----------------------------
|----------------------------|-----------------------------
|----------------------------|-----------------------------
|-----2-------1-----1-1-1--2-|-----2-----------------------
|-0-------3------------------|-0-------3---2-----2-2-2--3--

back to fig A:


  development and support by
dmitry ivanov