rock
 
|tablatures   |lyrics   |discussion forums   |more tabs @ XGuitar.com

Black Sabbath tabs

Virtual Death bass tab

Black Sabbath
Album - Cross Purposes
Song - Virtual Death

Tony Martin - Vocals
Tony Tommi  - Guitar
((((Geezer Butler - Bass))))
Bony Bardinell - Drums
Geoff Nicholls - Keyboard


Written by Butler, Tommi and Martin.
Published by artemis music / Warner Chapel.
Produced by Leif Masses and Black Sabbath.

Tabbed by; ALexander Eliasson
Email; WHITE_RAVEN14@hotmail.com



_____________________________________________________
INTRO

G: -----------------------------------------
D: -----------------------------------------
A: -------------------7-7-6-----------------
E: -0--0-----0-----0---------0--0-----0-----

G: -----------------------------------------
D: -----------------------------------------
A: -------------------7-7-6-----------------
E: -0--0-----0-----0---------0--0-----0-----

G: ----------
D: ----------
A: ----------
E: -0-0-2-3--
_____________________________________________________

VERSE 3  (All thru 4 times)

G: --------------------------------------
D: --------------------------------------
A: -------------------7-7-6--------------
E: -0--0-----0-----0---------0--0-----0--

G: ------------
D: ------------
A: -----6---5--
E: -4-5---4----

G: --------------------------------------
D: --------------------------------------
A: -------------------7-7-6--------------
E: -0--0-----0-----0---------0--0-----0--

G: ----------
D: ----------
A: ----------
E: -0-0-2-3--
______________________________________________________

CHORUS

G: ---------------------------
D: ---------------------------
A: ---------------------------
E: -5--8-7-6--------6------6--

G: ------------------------------
D: ------------------------------
A: ------------------------------
E: -3-4-5--8-7-6--------6-----6--

G: --------------------------------------
D: --------------------------------------
A: --------------------------------------
E: -3-4-5--8-7-6-----6-5-4----4-3-2---2--
_______________________________________________________

VERSE 2  (All thru 3 times)

G: -------------------------------------
D: -------------------------------------
A: ------------------7-7-6--------------
E: -0--0-----0-----0--------0--0-----0--

G: ------------
D: ------------
A: -----6---5--
E: -4-5---4----

G: --------------------------------------
D: --------------------------------------
A: -------------------7-7-6--------------
E: -0--0-----0-----0---------0--0-----0--

G: ----------
D: ----------
A: ----------
E: -0-0-2-3--
______________________________________________________

CHORUS

G: ---------------------------
D: ---------------------------
A: ---------------------------
E: -5--8-7-6--------6------6--

G: ------------------------------
D: ------------------------------
A: ------------------------------
E: -3-4-5--8-7-6--------6-----6--

G: --------------------------------------
D: --------------------------------------
A: --------------------------------------
E: -3-4-5--8-7-6-----6-5-4----4-3-2---2--
_______________________________________________________

Interlude (Play this part 6 times, the last 4 times play the strings softly
(especially all of you that use a pic), you should hardly be able to hear it.)

G: --------------------------
D: --------------------------
A: ----5---------------------
E: -3-----3--6----6--6-6-7-6-

G: --------------------------
D: --------------------------
A: ----5---------------------
E: -3-----3--5----5--5-5-6-5-
_____________________________________________________

VERSE 3   (All thru 2 times)

G: --------------------------------------
D: --------------------------------------
A: -------------------7-7-6--------------
E: -0--0-----0-----0---------0--0-----0--

G: ------------
D: ------------
A: -----6---5--
E: -4-5---4----

G: --------------------------------------
D: --------------------------------------
A: -------------------7-7-6--------------
E: -0--0-----0-----0---------0--0-----0--

G: ----------
D: ----------
A: ----------
E: -0-0-2-3--

(Second time ad this)
G: --------------------------------------
D: --------------------------------------
A: --------------------------------------
E: -3-4-5--8-7-6-----6-5-4----4-3-2---2--
_____________________________________________________

Outro
(Play this now all thru 9 times and fade)

G: --------------------------
D: --------------------------
A: ----5---------------------
E: -3-----3--6----6--6-6-7-6-

G: --------------------------
D: --------------------------
A: ----5---------------------
E: -3-----3--5----5--5-5-6-5-

_____________________________________________________

This is a slow, heavy one. Enjoy!
  development and support by
dmitry ivanov