rock
 
|tablatures   |lyrics   |discussion forums   |more tabs @ XGuitar.com

Black Sabbath tabs

Valhalla guitar tab

Valhalla
Black Sabbath - TYR (1990)

|--------------------------------------------------
|--------------------------------------------------
|---------7---------7-----7---------7-----7--5--4--
|---------7---------7-----7---------7-----7--5--4--
|-0-0-0-0---0-0-0-0---0-0---0-0-0-0---0-0----3--2--
|--------------------------------------------------

|----------------------------------------------------------
|----------------------------------------------------------
|-2---------7---------7-----7---------7-----7--------------
|-2---------7---------7-----7---------7-----7--------------
|-0-0-0-0-0---0-0-0-0---0-0---0-0-0-0---0-0---------5------
|---------------------------------------------5-7-8---8-7--

  "When the winds of Valhalla run cold..."
|---------------------------------------------------------------
|---------2-------------------------2-------------------------2-
|---------2--4----------------------2--4----------------------2-
|---------2--5----------------------2--5----------------------2-
|-0-0-0-0-0--5---3---2------0-0-0-0-0--5---3--2--0----0-0-0-0-0-
|------------3-----------3-------------3------------3-----------

"raise your hands..."
|-------8-----7-----5----8----10----
|-7----7--7-----7--------8----10----
|-7-7-------7-----7---7--7----11----
|-7----------------------9----12----
|-5---------------------------------x 2
|-----------------------------------

Sorry, no solo


  development and support by
dmitry ivanov