rock
 
|tablatures   |lyrics   |discussion forums   |more tabs @ XGuitar.com

Black Sabbath tabs

Turn Up The Night bass tab

Black Sabbath - Mob Rules
Turn Up The Night

note: "*"s are used to represent the same note X times (listen to the song).
% = repeat previous bar

Tune down 1/2 step

G------------------------------------|
D-------------------------3-2--------|
A-------3--0-5--------3-5-----3-5----|
E--1*-----------1*--5----------------|

  "A rumble of thunder..."
G----------------------|-----------------------------
D------------3-1*------|--------------------0-1-2-3--
A----------------------|------------3-1*-------------
E--1*----3-5-----------|--1*----3-5------------------

  "The darkened deliver..."
G-------------------------|---------------------7-5-----------7-7--
D--------------1*---0-1-0-|-------------------------7-5------------
A------------3------------|------------3-6*-------------5*-----5---
E--1*----3-5--------------|--1*----3-5-----------------------------

  intro riff with fill
G-----------------7-----------------------|
D---------------7--7-----------3-2--------|
A-------3--0-5-------------3-5-----3-5----|
E--1*----------------1*--5----------------|

  "Regiment fooled you..."
G------------------------------------------------------------------
D--------------1*------------------------0-1-2-3-------------1*----
A------------3-------------------3-1*----------------------3-------
E--1*----3-5-----------1*----3-5-----------------1*----3-5---------

  "So let it all go"
G--7-5------------------5-7*--------|
D------7-5--------3-5-7-------------|
A----------5*------------------5----|
E-----------------------------------|

   chorus
G-------------------------------------------
D-------------------------------------------
A-----------------------------5-6-7-8-------
E--\-1*---6*---5-6-5-1*---6*----------1*----

   solo
G-------------------------------------------------------------5-7-
D-------------3--3-3---3-5--------------------------3--3--5-7-----
A--5--5-5-3-5--------5-----3--3-0-3-5*---5--555-3-5---------------
E-----------------------------------------------------------------

G---------------77-5----------------------------------------
D--------------------7--------------------------------------
A--3--3--0-3-5----------back to beginning-------------------
E-----------------------------------------------------------

  "Evil lurks in twilight..."
G-----------------------------------------------------------------
D-------------3--33----3-5--------------------------3--33----3-5--
A--5--5-5-3-5-------55-----3--3-0-3-5*---5--555-3-5-------55------
E-----------------------------------------------------------------

  "Li-ke a fi-re..."
G----------------------------------------
D----------------------------------------
A--3--4--5--6--7-8--9--10--11--12--13-14-
E----------------------------------------

   solo
G--------------------------------------------------------------------------5-7-
D-------------3-3-33---3-5---------------------------------------------5-7-----
A--5--5-5-3-5--------5-----3--3-0-3-5*---5--5-5-3--------3---3---3-5-----------
E-------------------------------------------------5-3*-----5---5---------------

G----------------------------------------------------------------------------
D-------------3-3-33---3-5---------------------------------------------------
A--5--5-5-3-5--------5-----3--3-0-3-5*---5--5-5-3---------3--4--5--6-...--14-
E-------------------------------------------------5-3*-----------------------

back to verses then chorus (2:45)

G------------------------------------------------------------
D------------------------------------------------------------
A-----------------------------------------5--5-5-0-3-5*---\--
E--\-1*---6*---5-6-5-1*---6*---5-6-5-1*----------------------

G--------------------------------------------------------------5-7*-5h7*-5h7*-
D--------------------------------------------------------3-5-7----------------
A-----------------------------------------5--5-5-0-3-5*-----------------------
E--\-1*---6*---5-6-5-1*---6*---5-6-5-1*---------------------------------------

G----------------------------------------
D----------------------------------------
A-------------5-6-7-8--------------------
E--\-1*---6*---------1*---6*---5-6-5-1*-- etc until end
  development and support by
dmitry ivanov