rock
 
|tablatures   |lyrics   |discussion forums   |more tabs @ XGuitar.com

Black Sabbath tabs

Trashed guitar tab

Trashed
Black Sabbath - Born Again (1983)


|----------------------------------------------------------
|----------------------------------------------------------
|----------7--6--7--6----9---9---9---9---------------------
|--2---7---7--6--7--6----9---9---9---9---------------------
|--2---7---5--4--5--4--777-777-777-777---------------------
|--0---5---------------------------------------------------


|----------------------------------------------------------
|----------------------------------------------------------
|--4-4-4-4-2-4----4-4-4-4-2-4-----4--5--4--2---------------
|--4-4-4-4-2-4----4-4-4-4-2-4-----4--5--4--2--5-4----------
|--2-2-2-2-0-2----2-2-2-2-0-2-----2--3--2--0--5-4----------
|---------------------------------------------3-2----------


|----------------------------------------------------------
|----------------------------------------------------------
|-------------------7--6--7--6--7-6------------------------
|-------------------7--6--7--6--5-4------------------------
|-------------------5--4--5--4-----------------------------
|--0000000000000000----------------------------------------


|----------------------------------------------------------
|----------------------------------------------------------
|-----------------10-9-----10-9-----10-9--12-10-10-9-------
|-----------------10-9-----10-9-----10-9--12-10-10-9-------
|------------------8-7------8-7------8-7--10--8--8-7-------
|-0000000000000000-----0000-----0000---------------------


"oh, mr. miracle"
|---------------------|--------------------------------------
|---------------------|--------------------------------------
|---------------------|--------------------------------------
|---------------------|--------------------------------------
|--3----2----1----0---|-5-----3-----------3-2-0-3-2-0-3-2-0--
|---------------------|-------------3------------------------





  development and support by
dmitry ivanov