rock
 
|tablatures   |lyrics   |discussion forums   |more tabs @ XGuitar.com

Black Sabbath tabs

Tomorrow's Dream guitar tab

Tomorrow's Dream
Black Sabbath - Volume 4 (1972)

Tune down 1 1/2 steps

|-------------------------------------------------------
|---------------------------------------------7--7--7---
|---------------------------------------------7--7--7---
|--4-/-7--9---9-9---9---7---9---7-7---9\------7--7--7---
|--2-/-5--7---7-7---7---5---7---7-7---7\------5--5--5---
|-------------------------------------------------------


well, ill meet you...
|-------------------------------------------------------
|--------------------------------------------7--7--5--5-
|--------------------------------------------7--7--6--6-
|-------9--9--9-----9--9--9-----9--9---------7--7--7--7-
|-0-----7--7--7--7--7--7--7--7--7--7------0--5--5--7--7-
|--------------------------------------------------5--5-


|-2----2---2--2---------------------------------------------
|-3----3---3--3---------------------------------------------
|-2----2---2--2---------------------------------------------
|-0----0---0--0---------------------------------------------
|----------------0---2h3p2p0--2h3p2p0--2p0-0----------------
|-----------------------------------------------------------


|-------2-----2----------2-----2----------5-----5----------5-----5----------
|-----3---3-----3------3---3-----3------6---6-----6------6---6-----6--------
|---2-------2--------2-------2--------5-------5--------5-------5------------
|-0----------------0----------------0----------------0----------------------
|---------------------------------------------------------------------------
|---------------------------------------------------------------------------

solo:
|------------------------------------------------------------------------
|------------------------------------------------------------------------
|----------------------------------------------------------7-7h9---------
|-----5-5------------5-5--------------5-5--------------/9----------------
|-5-7-----7------5-7-----7--------5-7-----7----5--h7p5-------------------
|------------------------------------------------------------------------


|-------------------------------------------------------------------------------
|-------------------------------------------------------------------------------
|-9^^^^^^^p7--9p7--------------------------------------------7------------------
|-----------------9-9\7---5------------5-5----------------/9---9\7--5-7^-7-5----
|----------------------------7-----5h7-----7-----5-h7p5----------------------7--
|-------------------------------------------------------------------------------


|-------------------------
|-------------------------
|-------------------------
|-----5-5-----------------
|-5h7-----7---------------
|-------------6-5---------





  development and support by
dmitry ivanov