rock
 
|tablatures   |lyrics   |discussion forums   |more tabs @ XGuitar.com

Black Sabbath tabs

Time Machine bass tab

Tune Down

F#||---------------------------|--------------------------|
C#||*--------------------------|--------------------------|
G#||*--------------------------|--------------------------|
D#||---2--2--2--2--2--2--2--2--|--2--2--2--2--2--2--2--2--|


                                                    2x
------------------------|---------------------------||----------------------|
------------------------|--------------------------*||----------------------|
------------------------|--------------------------*||-----------3----------|
--2--2--2--1------2--2--|--2--2--2--2--2--2--2--2---||--2--2--2-------------|



-------------------|--------------------------|--------------------------|
-------------------|--------------------------|--------------------------|
----------2--------|--------------------------|--------------------------|
-------------------|--2--2--2--2--2--2--2--2--|--2--2--2--2--2--2--2--2--|



--------------------------|--------------------------|
--------------------------|--------------------------|
--------------------------|--------------------------|
--2--2--2--2--2--2--2--2--|--2--2--2--2--2--0--0--1--|



--------------------------|--------------------------|
--------------------------|--------------------------|
--------------------------|--------------------------|
--2--2--2--2--2--2--2--2--|--2--2--2--2--2--2--2--2--|



--------------------------|--------------------------|
--------------------------|--------------------------|
--------------------------|--------------4--3--2--0--|
--2--2--2--2--2--2--2--2--|--2--0--1--2--------------|



--------------------------|--------------------------|
--------------------------|--------------------------|
--------------------------|--------------------------|
--2--2--2--2--2--2--2--2--|--2--2--2--2--2--2--2--2--|



--------------------------|--------------------------|
--------------------------|--------------------------|
--------------------------|--------------------------|
--2--2--2--2--2--2--2--2--|--2--2--2--2--2--0--0--1--|



--------------------------|--------------------------|
--------------------------|--------------------------|
--------------------------|--------------------------|
--2--2--2--2--2--2--2--2--|--2--2--2--2--2--2--2--2--|



--------------------------|--------------------------|------------------------|
--------------------------|--------------------------|------------------------|
--------------------------|--------------4--3--2--0--|--0----0--0----0--0--3--|
--2--2--2--2--2--2--2--2--|--2--0--1--2--------------|------------------------|



-----------------------|--------------------------|--------------------------|
-----------------------|--------------------------|--------------------------|
----3--3--2----2-------|--------------------------|--------------------------|
------------------3----|--2--2--2--2--2--2--2--2--|--2--2--2--2--2--2--2--2--|



--------------------------|--------------------------|
--------------------------|--------------------------|
--------------------------|--------------------------|
--2--2--2--2--2--2--2--2--|--2--2--2--2--2--0--0--1--|



--------------------------|--------------------------|
--------------------------|--------------------------|
--------------------------|--------------------------|
--2--2--2--2--2--2--2--2--|--2--2--2--2--2--2--2--2--|



--------------------------|--------------------------|
--------------------------|--------------------------|
--------------------------|--------------4--3--2--0--|
--2--2--2--2--2--2--2--2--|--2--0--1--2--------------|



--------------------------|--------------------------|
--------------------------|--------------------------|
--------------------------|--------------------------|
--2--2--2--2--2--2--2--2--|--2--2--2--2--2--2--2--2--|



--------------------------|--------------------------|
--------------------------|--------------------------|
--------------------------|--------------------------|
--2--2--2--2--2--2--2--2--|--2--2--2--2--2--0--0--1--|



--------------------------|--------------------------|
--------------------------|--------------------------|
--------------------------|--------------------------|
--2--2--2--2--2--2--2--2--|--2--2--2--2--2--2--2--2--|



--------------------------|--------------------------|------------------------|
--------------------------|--------------------------|------------------------|
--------------------------|--------------4--3--2--0--|--7----7--7----7--7--7--|
--2--2--2--2--2--2--2--2--|--2--0--1--2--------------|------------------------|



------------------------|------------------------|------------------------|
------------------------|------------------------|------------------------|
--6----6--6----6--6--6--|--5----5--5----5--5--5--|--4----4--4----4--4--4--|
------------------------|------------------------|------------------------|



------------------------|------------------------|------------------------|
------------------------|------------------------|------------------------|
--7----7--7----7--7--7--|--6----6--6----6--6--6--|--5----5--5----5--5--5--|
------------------------|------------------------|------------------------|



--------------------|--------------------------|--------------------------|
--------------------|--------------------------|--------------------------|
--4-----------------|-----------0--------------|-----------------------0--|
-----------5--------|--2--0--2-----2--2--2--2--|--2--2--2--2--2--2--2-----|



--------------------------|-----------------------|------------------------|
--------------------------|-----------------------|------------------------|
-----------0-----------0--|----------3----3--2----|--7----7--7----7--7--7--|
--2--0--2-----2--2--2-----|----0--2---------------|------------------------|



------------------------|------------------------|------------------------|
------------------------|------------------------|------------------------|
--7----7--7----7--7--7--|--5----5--5----5--5--5--|--5----5--5----5--5--5--|
------------------------|------------------------|------------------------|



------------------------|------------------------|-----------------------|
------------------------|------------------------|-----------------------|
--4----4--4----4--4--4--|--4----4--4----4--4--4--|--0----0--0----0--2----|
------------------------|------------------------|-----------------------|



-------------------------|--------------------------|--------------------------|
-------------------------|--------------------------|--------------------------|
----2--2--2--2--2--2--2--|-----7--6-----6--5-----5--|--4-----4--3-----3--2-----|
-------------------------|--0--------0--------0-----|-----0--------0--------2--|



--------------------------|--------------------------|
--------------------------|--------------------------|
--------------------------|--------------------------|
--0--1--2--0--1--2--0--2--|--0--1--2--0--1--2--0--2--|



--------------------------|--------------------------|
--------------------------|--------------------------|
--------------------------|--------------------------|
--0--1--2--0--1--2--0--2--|--0--1--2--0--1--2--0--2--|



--------------------------|--------------------------|
--------------------------|--------------------------|
--------------------------|--------------------------|
--0--1--2--0--1--2--0--2--|--0--1--2--0--1--2--0--2--|



--------------------------|--------------------------|
--------------------------|--------------------------|
--------------------------|--------------------------|
--0--1--2--0--1--2--0--2--|--0--1--2--0--1--2--0--2--|



--------------------------|--------------------------|
--------------------------|--------------------------|
--------------------------|--------------------------|
--0--1--2--0--1--2--0--2--|--0--1--2--0--1--2--0--2--|



--------------------------|--------------------------|
--------------------------|--------------------------|
--------------------------|--------------------------|
--0--1--2--0--1--2--0--2--|--0--1--2--0--1--2--0--2--|



--------------------------|--------------------------|
--------------------------|--------------------------|
--------------------------|--------------------------|
--0--1--2--0--1--2--0--2--|--0--1--2--0--1--2--0--2--|



--------------------------|--------------------------|
--------------------------|--------------------------|
--------------------------|--------------------------|
--0--1--2--0--1--2--0--2--|--0--1--2--0--1--2--0--2--|



--------------------------|--------------------------|
--------------------------|--------------------------|
--------------------------|--------------------------|
--0--1--2--0--1--2--0--2--|--0--1--2--0--1--2--0--2--|



--------------------------|--------------------------|
--------------------------|--------------------------|
--------------------------|--------------------------|
--0--1--2--0--1--2--0--2--|--0--1--2--0--1--2--0--2--|



--------------------------|--------------------------|
--------------------------|--------------------------|
--------------------------|--------------------------|
--0--1--2--0--1--2--0--2--|--0--1--2--0--1--2--0--2--|



--------------------------|--------------------------|------------------------|
--------------------------|--------------------------|------------------------|
--------------------------|--------------------------|--4----4--4----4--4--4--|
--0--1--2--0--1--2--0--2--|--0--1--2--0--1--2--0--2--|------------------------|



-----------------------|-----------------------|--------------------|
-----------------------|-----------------------|--------------------|
--5----5--4----4--2----|--4----4--4----4--4----|--2-----------------|
-----------------------|-----------------------|---------3----------|



--------------------------|--------------------------|
--------------------------|--------------------------|
--------------------------|--------------------------|
--2--2--2--2--2--2--2--2--|--2--2--2--2--2--2--2--2--|



--------------------------|--------------------------|
--------------------------|--------------------------|
--------------------------|--------------------------|
--2--2--2--2--2--2--2--2--|--2--2--2--2--2--0--0--1--|



--------------------------|--------------------------|
--------------------------|--------------------------|
--------------------------|--------------------------|
--2--2--2--2--2--2--2--2--|--2--2--2--2--2--2--2--2--|



--------------------------|--------------------------|
--------------------------|--------------------------|
--------------------------|--------------4--3--2--0--|
--2--2--2--2--2--2--2--2--|--2--0--1--2--------------|



--------------------------|--------------------------|
--------------------------|--------------------------|
--------------------------|--------------------------|
--2--2--2--2--2--2--2--2--|--2--2--2--2--2--2--2--2--|



--------------------------|--------------------------|
--------------------------|--------------------------|
--------------------------|--------------------------|
--2--2--2--2--2--2--2--2--|--2--2--2--2--2--0--0--1--|



--------------------------|--------------------------|
--------------------------|--------------------------|
--------------------------|--------------------------|
--2--2--2--2--2--2--2--2--|--2--2--2--2--2--2--2--2--|



--------------------------|--------------------------|------------------------|
--------------------------|--------------------------|------------------------|
--------------------------|--------------4--3--2--0--|--7----7--7----7--7--7--|
--2--2--2--2--2--2--2--2--|--2--0--1--2--------------|------------------------|



------------------------|------------------------|------------------------|
------------------------|------------------------|------------------------|
--6----6--6----6--6--6--|--5----5--5----5--5--5--|--4----4--4----4--4--4--|
------------------------|------------------------|------------------------|



------------------------|------------------------|------------------------|
------------------------|------------------------|------------------------|
--7----7--7----7--7--7--|--6----6--6----6--6--6--|--5----5--5----5--5--5--|
------------------------|------------------------|------------------------|



--------------------|--------------------------|--------------------------|
--------------------|--------------------------|--------------------------|
--4-----------------|-----------0--------------|-----------------------0--|
-----------5--------|--2--0--2-----2--2--2--2--|--2--2--2--2--2--2--2-----|



--------------------------|-----------------------|------------------------|
--------------------------|-----------------------|------------------------|
-----------0-----------0--|----------3----3--2----|--7----7--7----7--7--7--|
--2--0--2-----2--2--2-----|----0--2---------------|------------------------|



------------------------|------------------------|------------------------|
------------------------|------------------------|------------------------|
--7----7--7----7--7--7--|--5----5--5----5--5--5--|--5----5--5----5--5--5--|
------------------------|------------------------|------------------------|



------------------------|------------------------|-----------------------|
------------------------|------------------------|-----------------------|
--4----4--4----4--4--4--|--4----4--4----4--4--4--|--0----0--0----0--2----|
------------------------|------------------------|-----------------------|



-----------------------|------------------------|------------------------|
-----------------------|------------------------|------------------------|
------2--2----2--2--2--|--7----7--7----7--7--7--|--7----7--7----7--7--7--|
-----------------------|------------------------|------------------------|



------------------------|------------------------|------------------------|
------------------------|------------------------|------------------------|
--5----5--5----5--5--5--|--5----5--5----5--5--5--|--4----4--4----4--4--4--|
------------------------|------------------------|------------------------|



------------------------|-----------------------|-------------------------|
------------------------|-----------------------|-------------------------|
--4----4--4----4--4--4--|--0----0--0----0--2----|----2--2--2--2--2--2--2--|
------------------------|-----------------------|-------------------------|



--------------------------|--------------------------|
--------------------------|--------------------------|
-----7--6-----6--5-----5--|--4-----4--3-----3--2-----|
--0--------0--------0-----|-----0--------0--------2--|



--------------------------|--------------------------|
--------------------------|--------------------------|
--------------------------|--------------------------|
--0--1--2--0--1--2--0--2--|--0--1--2--0--1--2--0--2--|



|---------------------------|--------------------------|
|*--------------------------|--------------------------|
|*--------------------------|--------------------------|
|---2--2--2--2--2--2--2--2--|--2--2--2--2--2--2--2--2--|


                                                    2x
------------------------|---------------------------||----------------------|
------------------------|--------------------------*||----------------------|
------------------------|--------------------------*||-----------3----------|
--2--2--2--1------2--2--|--2--2--2--2--2--2--2--2---||--2--2--2-------------|



------------------|-----------------------|------------------||
------------------|-----------------------|------------------||
------------------|-----------------------|------------------||
------------------|--2--2--2--1------2----|------------------||
  development and support by
dmitry ivanov