rock
 
|tablatures   |lyrics   |discussion forums   |more tabs @ XGuitar.com

Black Sabbath tabs

The Sabbath Stones guitar tab

The Sabbath Stones
Black Sabbath - TYR (1990)

"Fire & water, wind & rain..."
|----------------------------------------------------------
|----------------------------------------------------------
|-9--9--------10--9--9---------9--9--------10--9--9--------
|-9--9--------10--9--9---------9--9--------10--9--9--------
|-7--7---------8--7--7---------7--7---------8--7--7--------
|----------------------------------------------------------


|---------------------------------------------------------------
|---------------------------------------------------------------
|---------------9--9------------10--9--9------------------------
|---------------9--9------------10--9--9------------------------
|-----7-5-------7--7-------------8--7--7------------7-5---------
|-5h7-----7-6~-------\\-00000000--------\\-0000-5h7-----7-6~----


|----------------------0---2------------------------0---2-3-
|-------0------------1---3---3-------0------------1---3-----
|-----0---0--------0---------------0---0--------0-----------
|---2------------2---------------2------------2-------------
|------------2/3--------------------------2/3---------------
|-0----------------------------0----------------------------

"the time..."
|----------------------------------------------------------
|-----5-------4-5---(strum)---------3-----3----------------
|---4---4h5-5-----5-0-------------4---4-----4--------------
|-------------------2-------------------------4------------
|-------------------2--------------------------------------
|-0-----------------0-------0-2-3-------2-------0----------

"reciever of light"
|----------------------------------------------------------
|----------------------------------------------------------
|----------------------------------------------------------
|--9-9-9-9-9--7/9-----7----5-5-5-5-5--4-5------------------
|--7-7-7-7-7--5/7-----5----3-3-3-3-3--2-3-3-2---2-0--------
|-----------------5/7-------------------------3-----3-2-0--

*double time*
|----------------------------------------------------------
|----------------------------------------------------------
|-9------7------5------------------------------------------
|-9------7------5------5--4-----4--------------------------
|-7------5------3------3--2--5--2--5--4--2-----------------
|----------------------------3-----3--2--0-----------------

|----------------------------------------------------------
|----------------------------------------------------------
|----------------------------------------------------------
|------------7-------------------------7-9-7---------------
|-----7-9-10---10-9-10-9-7------7-9-10-------10-9-7--------
|-0-0-----------------------0-0----------------------------

|----------------------------------------------------------
|----------------------------------------------------------
|----------------------------------------------------------
|------------7-------------10-9-7-9-7---------7------------
|-----7-9-10---10-9-10-9-7------------10-9-10---10-9-7-----
|-0-0------------------------------------------------------

w/ humming...
|----------------------------------------------------------
|----------------------------------------------------------
|----------------------------------------------------------
|------------------7------7-9-/9-7-------------------------
|-7----9-10-9---10---10------------10-9-7----9-10-9-and so on...
|----------------------------------------------------------


  development and support by
dmitry ivanov