rock
 
|tablatures   |lyrics   |discussion forums   |more tabs @ XGuitar.com

Black Sabbath tabs

The Hand That Rocks The Crandle guitar tab

The Hand The Rocks The Cradle
Black Sabbath - Cross Purposes (1994)


"young life. too young..."
|-------0-----0---------0-----0----------0-----0---------0-----0-----
|---7---------------7---------------8----------------8---------------
|-7---------------7---------------7----------------7-----------------
|-----9-----9---9-----9-----9---9-----9------9---9-----9-----9---9---
|--------------------------------------------------------------------
|--------------------------------------------------------------------

"dont feel the hunger..."
|--------0-----0---------0------0---------0-----0---------0-----0----
|---10---------------9----------------8---------------8--------------
|-9----------------9----------------7---------------7----------------
|------9-----9---9-----9------9---9-----9-----9---9-----9-----9---9--
|--------------------------------------------------------------------
|--------------------------------------------------------------------

"When the hand that ricks the cradle..."
|------------------------------------------------------------
|------------------------------------------------------------
|------------------------------------------------------------
|---------------0-1-2-2-3-4-4--------------0-1-2-------------
|-\-2--0--2---2---------------2--0--2----2-------2--0--------
|------------------------------------------------------------

"no grave could be deep enough..."
|------------------------------------------------------------
|------------------------------------------------------------
|----------------2-----4----4-2-----------------2------------
|-5--5--5--5-----2-----4----4-2-5--5--5--5--2-5-2-2---2-4-5--
|-5--5--5--5-----0-----2----2-0-5--5--5--5--2-5-0-2---2-4-5--
|-3--3--3--3p(0)----------------3--3--3--3--0-3---0---0-2-3--


  development and support by
dmitry ivanov