rock
 
|tablatures   |lyrics   |discussion forums   |more tabs @ XGuitar.com

Black Sabbath tabs

The Hand That Rocks the Cradle bass tab

Black Sabbath
Album - Cross Purposes
Song  - The Hand That Rocks The Cradle

Tony Martin - Vocals
Tony Tommi  - Guitar
((((Geezer Butler - Bass))))
Bony Bardinell - Drums
Geoff Nicholls - Keyboard

Written by Butler, Tommi and Martin.
Published by artemis music / Warner Chapel.
Produced by Leif Masses and Black Sabbath.

Tabbed by; ALexander Eliasson
Email; WHITE_RAVEN14@hotmail.com



whole note      o
half note       h
quarter note    q
8th note        e
16th note       s

_________________________________________________________________

INTRO

G: -----------------|------------------
D: -----------------|------------------
A: -----------------|------------------
E: -7---------------|---------------5--
    o                               o

G: -----------------|------------------
D: -----------------|------------------
A: -----------------|----5----------3--
E: -7---------------|------------------
    o                    h          h

G: -----------------|------------------
D: -----------------|------------------
A: -----------------|------------------
E: -5------7--------|----5----------3--
    q      o             h          o

G: -----------------|------------------
D: -----------------|------------------
A: -----------------|------------------
E: -7---------------|----5----------3--
    o                    h          o

G: -----------------|------------------
D: -----------------|------------------
A: -----------------|------------------
E: -5------7--------|----5----------3--
    q      o             h          o

G: -----------------|------------------|-----------
D: -----------------|------------------|-----------
A: -----------------|------------------|-----------
E: -7---------------|----5----------3--|---------7-
    o                    h          o            o
__________________________________________________________________

Verse 1  (Play thru 6 times)

G: ---------|---------------
D: ---------|---------------
A: ---------|----------6----
E: -7-5-7---|--7-7-7-7---5--
    e e q      s s s s e e

G: ---------|-------------
D: ---------|-------------
A: ---------|-------------
E: -7-5-7---|--7-7-7-7-5--
    e e q      s s s s q
___________________________________________________________________

Chorus (Play thru 3 times)

G: -------------------------
D: -------------------------
A: -------------------------
E: -3------3-3-3-3-5-5-5-5--
    q      e e e e e e e q

G: ---------------
D: ---------------
A: ---------------
E: -7-----7-5-3---
    q     s s q

G: -------------------------
D: -------------------------
A: -------------------------
E: -3------3-3-3-3-5-5-5-5--
    q      e e e e e e e q
__________________________________________________________________

Verse 2  (Play thru 6 times)

G: ---------|---------------
D: ---------|---------------
A: ---------|----------6----
E: -7-5-7---|--7-7-7-7---5--
    e e q      s s s s e e

G: ---------|-------------
D: ---------|-------------
A: ---------|-------------
E: -7-5-7---|--7-7-7-7-5--
    e e q      s s s s q
___________________________________________________________________

Chorus (Play thru 3 times)

G: -------------------------
D: -------------------------
A: -------------------------
E: -3------3-3-3-3-5-5-5-5--
    q      e e e e e e e q

G: ---------------
D: ---------------
A: ---------------
E: -7-----7-5-3---
    q     s s q

G: -------------------------
D: -------------------------
A: -------------------------
E: -3------3-3-3-3-5-5-5-5--
    q      e e e e e e e q
____________________________________________________________________

Interlude

G: -----------------|------------------
D: -----------------|------------------
A: -----------------|------------------
E: -7---------------|----5----------3--
    o                    h          o
G: -----------------|------------------
D: -----------------|------------------
A: -----------------|------------------
E: -7---------------|----5----------3--
    o                    h          o
G: -----------------|------------------
D: -----------------|------------------
A: -----------------|------------------
E: -7---------------|----5----------3--
    o                    h          o
G: -----------------|------------------
D: -----------------|------------------
A: -----------------|------------------
E: -7---------------|----5----------3--
    o                    h          o

G: --------------------|-----------------|---------------
D: --------------------|-----------------|---------------
A: --------------------|-----------------|---------------
E: -7------5-------3---|----5-----7------|---5---------3-
    h      h       h        q     o          h         o

E:---------------|------------
A:---------------|------------
D:---------------|------------
G:---5---------3-|----------7-
     h         o            o
______________________________________________________________________

Solo  (Play thru 3 times)

G: -------------------------
D: -------------------------
A: -------------------------
E: -3------3-3-3-3-5-5-5-5--
    q      e e e e e e e q

G: ---------------
D: ---------------
A: ---------------
E: -7-----7-5-3---
    q     s s q

G: -------------------------
D: -------------------------
A: -------------------------
E: -3------3-3-3-3-5-5-5-5--
    q      e e e e e e e q
_________________________________________________________________________

Outro  (Play thru 12 times and fade)

G: ---------|---------------
D: ---------|---------------
A: ---------|----------6----
E: -7-5-7---|--7-7-7-7---5--
    e e q      s s s s e e

G: ---------|-------------
D: ---------|-------------
A: ---------|-------------
E: -7-5-7---|--7-7-7-7-5--
    e e q      s s s s q
__________________________________________________________________________
  development and support by
dmitry ivanov