rock
 
|tablatures   |lyrics   |discussion forums   |more tabs @ XGuitar.com

Black Sabbath tabs

Symptom of the Universe bass tab

Symptom Of The Universe - Bass
Black Sabbath - Sabotage (1975)


     ||---------------------------------------------------------------------
     ||---------------------------------------------------------------------
     ||-------------------------------------------------------6-------------
     ||-0-0-0-0-0-0-0-0-0-0-6-6-6-6-6-6-6\0-0-0-0-0-0-0-0-0-0---6-6-6-6-6-6-
                                                Take me through the centurys
     ----|-----------------------------------||-----------------------------
     ----|-----------------------------------||-----------------------------
     ----|--5========------------------------||-----------------------------
     -6\-|-----------6========5============--||-0-0-0-0-0-0-0-0-0-0-6-6-6-6-
     
     to supersonic years...                          YEAH........
     ----------------------------------------------||-----------------------
     ----------------------------------------------||-----------------------
     -------7-7-7-7-7-7-7-7-7-7--------------------||--5========------------
     -6-6-6\--------------------11\-6-6-6-6-6-6-6\-||-----------6=========5=
                          Iommi keeps playing and Geezer goes w/drums
     -------||-----------|-----------------------------------------||------
     -------||-----------|-----------------------------------------||------
     -------||--------9\-|----------9\------------------9\---------||-2-2-2
     =======||--5--------|----5----------2--2-----5----------2--2--||------
     pre-solo
     ----------------------------------------------------------------------
     ---------------2-4-4-4-4-2-4-4-4-4-2-4-4-4-4-2-4-4-4-4----------------
     -2-2-2-2-2-2-2-----------------------------------------2-2-2-2-2-2-2-2
     ----------------------------------------------------------------------
         solo
     --||---------------------------------------------------------------||-
     --||---------------------------------------------------------------||-
     -2||-0-0-0-0-0-0-0-0-0-0-0-0-0-0-0-0-2-2-2-2-2-2-2-2-2-2-2-2-2-2-2-||-
     --||---------------------------------------------------------------||-
     little thing leading up the   acoustic part\/
     --------------------------||---------------------------||Geezer grooves
     --------------------------||---------------------------||here on the 
     -2-2---2---2-2----2---2-2-||-------7/9--11--9----7-----||acoustic part
     --------------------------||--9p7------------------9p7-||B minor pentonic
     /=slide up   p=pull-off
     \=slide down = hold note

  development and support by
dmitry ivanov