rock
 
|tablatures   |lyrics   |discussion forums   |more tabs @ XGuitar.com

Black Sabbath tabs

Swinging the Chain guitar tab

Swinging The Chain
Black Sabbath - Never Say Die (1978)


|-------------------------------------------------------------------
|-------------------------------------------------------------------
|------------------------------2-2-----------------------------2-2--
|------------------------------2-2-----------------------------2-2--
|--3-0-----0-3~~-------0---0----------3-0-----0-3~~-----0---0-------
|------3-3---------------3----------------3-3-------------3---------


|----------------------------------------------------------
|----------------------------------------------------------
|---7----/9--5--2----------7---7/9---2---------------------
|---7----/9--5--2----------7---7/9---2---------------------
|---5----/7--3--0----------5---5/7---0---------------------
|----------------------------------------------------------


|----------------------------------------------------------
|----------------------------------------------------------
|-----------------------------------------5^--5------------
|-----------------------------------------5^--5------------
|--1-------1---------1----1-------1------------------------
|----3-1-3---3-1-3----------3-1-3---3-1--------------------


|----------------------------------------------------------
|----------------------------------------------------------
|---------------5--7-----------------5-5-5-----------------
|-----------5---5--7-------------5---5-5-5-5---------------
|-----5h6h7----------------5h6h7-----------5---------------
|---5---------5----------5---------5-----------------------





  development and support by
dmitry ivanov