rock
 
|tablatures   |lyrics   |discussion forums   |more tabs @ XGuitar.com

Black Sabbath tabs

Spiral Architect guitar tab

Spiral Architect
Black Sabbath - Sabbath, Bloody Sabbath (1974)

Tune down 1 1/2 steps (C#)

|-------0-----------0-----------0-----------0-----
|-----6---6-------6---6-------6---6-------6---6---
|---7-------7---7-------7---7-------7---7-------7-
|-0-----------0-----------0-----------0-----------
|-------------------------------------------------
|-------------------------------------------------

|-------0-----------0-----------0-----------0-----
|-----8---8-------8---8-------8---8-------8---8---
|---7-------7---7-------7---7-------7---7-------7-
|-0-----------0-----------0-----------0-----------
|-------------------------------------------------
|-------------------------------------------------

|-------8-----------8-----------8-----------8-----
|-----6---6-------6---6-------6---6-------6---6---
|---7-------7---7-------7---7-------7---7-------7-
|-0-----------0-----------0-----------0-----------
|-------------------------------------------------
|-------------------------------------------------

|--------------------------------------------------
|-------0-----------0-----------0-----------0------
|-----6---6-------4---4-------6---6-------4---4----
|---7-------7---5-------5---7-------7---5-------5--
|-0-----------0-----------0-----------0------------
|--------------------------------------------------


|------------------------------------------------------
|----3--3-3-3-3--3-3--3-3-----3--3-3-3-3--3-3--3-3-----
|----2--2-2-2-2--2-2--2-2-----2--2-2-2-2--2-2--2-2-----
|----0--0-0-0-0--0-0--0-0-----0--0-0-0-0--0-0--0-0-----
|-0------------------------0---------------------------
|------------------------------------------------------


|----------------------------------------------------------------------------
|------------------------------------3------------------------------------3--
|-2-2--5^5-2-5\2---------------------2------5^5-2-5\2---------------------2--
|----------------7\5-5\3-2h3p0-2h3p0-0----------------7\5-5\3-2h3p0-2h3p0-0--
|----------------------------------------------------------------------------
|----------------------------------------------------------------------------


|-----------------------------------------------------------
|-3--3--3------------------3--3-3-3-------------------------
|-2--2--2--2-2-2--2--5--4--2--2-2-2-------------------------
|-0--0--0--2-2-2--2--5--4--0--0-0-0-------------------------
|----------0-0-0--0--3--2-----------------------------------
|-----------------------------------------------------------

of all the things i value most...
|--------2--------------5-----------4-----------3-----------------
|------3---3----------6---6-------5---5-------4---4---------------
|----2-------2------5-------5---4-------4---3-------3-------------
|-0---------------0-----------0-----------0-----------------------
|-----------------------------------------------------------------
|-----------------------------------------------------------------

|--------2--------------5-----------4-----------3-----------------
|------3---3----------6---6-------5---5-------4---4---------------
|----2-------2------5-------5---4-------4---3-------3-------------
|-0---------------0-----------0-----------0-----------------------
|-----------------------------------------------------------------
|-----------------------------------------------------------------             


  development and support by
dmitry ivanov