rock
 
|tablatures   |lyrics   |discussion forums   |more tabs @ XGuitar.com

Black Sabbath tabs

Sometimes Im Happy guitar tab

"Sometimes I'm Happy"
Black Sabbath - Live At Last (1980)

		      This song is more or less a live-only song. 
	             	It is featured on Live At Last, 
                    during the adlib of Wicked World
	             yet was played in numerous live sets.


|----------------------------------------------------------
|----------------------------------------------------------
|--------------5---5---7---------------5---7-5~~~----------
|--------7p5---5---5---7---------7p5---5-------------------
|--0---0-----0---0---------0---0-----0---0-----------------
|----------------------------------------------------------


|----------------------------------------------------------
|----------------------------------------------------------
|--------------5---7^-^-^7-------------5---7-5~~~----------
|--------7p5---5---7^-^-^7-------7p5---5-------------------
|--0---0-----0---0---------0---0-----0---0-----------------
|----------------------------------------------------------


|----------------------------------------------------------
|----------------------------------------------------------
|--9---7---9---7------12/14--14-14-14-14-------------------
|--9---7---9---7------12/14--14-14-14-14-------------------
|--7---5---7---5------10/12--12-12-12-12-------------------
|----------------------------------------------------------


|----------------------------------------------------------
|----------------------------------------------------------
|----------------------------------------------------------
|--12/14-14-14-14-14-12/14-12/14-12/14---------------------
|--10/12-12-12-12-12-10/12-10/12-10/12---------------------
|----------------------------------------------------------


|----------------------------------------------------------
|----------------------------------------------------------
|--------------5---7---5-------------5---7-5~~~------------
|--------7p5---5---7---5-------7p5---5---------------------
|--0---0-----0---0-------0---0-----0---0-------------------
|----------------------------------------------------------


  development and support by
dmitry ivanov