rock
 
|tablatures   |lyrics   |discussion forums   |more tabs @ XGuitar.com

Black Sabbath tabs

Snowblind guitar tab

Snowblind

from Black Sabbath's Vol.4 (1972)
tabbed by dmitry_ivanov@aport.ru

Tune down 1 1/2 steps (C#)

Riff A:
|-------------------------|--------------------------|
|-------------------------|------5-----------7-------|
|-------------------------|-----5-5---------7-7------|
|----9-11-12----7---9-----|----5---5-------7---7-----|
|----7--9-10----5---7---0-|-3--------(3)/5-------(5)-|
|-------------------------|--------------------------|


Riff B: (main verse)
|-------------------------|
|-------------------------|
|-------------------------|
|-9---9-7-9---7-7---------|
|-7---7-5-7---5-5--5/7-10-|
|-------------------------|


Riff C: (semibridge)
|-------------------------|
|------------------5----7-|
|-----------------5----7--|
|-9--------------5----7---|
|-7------0-2p0--3----5----|
|---10-9------------------|


Riff D: (bridge)
|------0----------------------0------------0---------|
|-----0-0---------0----0-----0-0----------0-0--------|
|----0---0-------0----0-----0---0--------0---0-------|
|----------------------------------------------------|
|-7-------(7)--5----4----3-------(3)---2-------(2)---|
|----------------------------------------------------|
           ^
           I play opened 6th string instead of this ghost note


Solo 1:
|----10-12-12-12-12-------|-12-10--------------------|
|/12----------------------|-------12-10-10-8---------|
|-------------------------|--------------------------|
|-------------------------|------------------9\7--5--|
|-------------------------|--------------------------|
|-------------------------|--------------------------|

|-------------------------|--------------------------|
|-------------------------|--------------------------|
|-------------------------|--------------------------|
|-----5-7b9-9-9r7-5-7-----|-------5-------5----------|
|-5/7-----------------7---|--5--7---7-------7-7------|
|-------------------------|--------------------------|

|-----------------------------|----------------------|
|-----------------------------|----------------------|
|-----------------------------|----------------------|
|-----5-7/9-9-9r7-5-9r7-5-7---|------5-------5-------|
|-5h7-----------------------7-|-5--7---7-------7-7---|
|-----------------------------|----------------------|

|-----------------------10|-12-12-12-12---12----------------17----|
|--------------------12---|------------------15-12----------------|
|-------------------------|------------------------14-14-12-------|
|-----5-7b9-9r7-5---------|---------------------------------------|
|-5h7---------------------|---------------------------------------|
|-------------------------|---------------------------------------|

|---15--------------------------------|
|------17-15----17-17-15--------------|
|------------------------16-14-12-----|
|---------------------------------14--|
|-------------------------------------|
|-------------------------------------|  Return to riff B


Riff E: (the simplest)

|-------------------------------------------------------|
|-------------------------------------------------------|
|-------------------------------------------------------|
|-------------------------------------------------------|
|-7---7-10-10-7---7-10-10-7---7-10-10-------------------|
|-------------------------------------10-10-10-10-10-10-|



Outtro solo is based on Em pentatonic scale and it's just an improvisation
on the following notes:

|-12-15-12----------------------------------------------|
|----------15-12----------------------------------------|
|----------------14-12----------------------------------|
|----------------------14-12--------------just play with it
|----------------------------14-12----------------------|
|----------------------------------15-12----------------|

If someone have tabbed this solo, please mail me at dmitry_ivanov@aport.ru

Riffs go in the following order:

[Riff A] x 2
[Riff B] x 6
[Riff C] x 2
[Riff B] x 6
[Riff C] x 2
[Riff A] x 2
[Riff D] x 5
[Solo 1]
[Riff B] x 6
[Riff C] x 2
[Riff E] x 8
[Riff C] x 2
[Riff B] x 16 (with outtro solo)

Any correction and suggestions are welcome.
dmitry_ivanov@aport.ru
  development and support by
dmitry ivanov