rock
 
|tablatures   |lyrics   |discussion forums   |more tabs @ XGuitar.com

Black Sabbath tabs

Slipping Away bass tab

Intro x4

-----------------------------------------------------
-----------------------------------------------------
--------------1----------------3---------------------
-3------------------------------------------4--------

Chorus

-----------------------------------------------------------------
-----------------------------------------------------------------
-----------------1-1-1-1-1-1-1-1-3-3-3-3-3-3-3-3-----------------
-3-3-3-3-3-3-3-3---------------------------------4-4-4-4-4-4-4-4-

-----------------------------------------------------------------
-------------------------------------------------1-1-1-1-1-1-1-1-
-----------------1-1-1-1-1-1-1-1-3-3-3-3-3-3-3-3-----------------
-3-3-3-3-3-3-3-3-------------------------------------------------

Verse

-----------------------------------------------------
-----------------------------------------------------
--------------1--1-1--1-1--3--3-3--3-3---------------
-3--3-3--3-3----------------------------
  development and support by
dmitry ivanov