rock
 
|tablatures   |lyrics   |discussion forums   |more tabs @ XGuitar.com

Black Sabbath tabs

Sins of the Father guitar tab

Sins Of The Father
Black Sabbath - Dehumanizer (1992)


|-----------------------------------------------------------------------
|------------------------------------------------------8---7-8-7h8p7----
|--7-------5-----4---5---7---------7-------5-----4-------------------7--
|--0-0-0-0-0-0-0-0-0-0-0-0-0-0-0-0-0-0-0-0-0-0-0-0-0-0-0-0-0-0-0--------
|-----------------------------------------------------------------------
|-----------------------------------------------------------------------

|----------------------------------------------------------
|----------------------------------------------------------
|--5---------7----7------5---------7----7/9--5-------------
|--5----5----7----7--2-4-5----5----7----7/9--5-------------
|--3----5----5----5--0-2-3----5----5----5/7--3-------------
|-------3---------------------3----------------------------

|----------------------------------------------------------
|----------------------------------------------------------
|---9--8---5--4---------------/9--8---5--4-----------------
|---9--8---5--4--/5--4--2-----/9--8---5--4-----------------
|---7--6---3--2--/5--4--2-----/7--6---3--2-----------------
|-0--------------/3--2--0-------------------0-0-0-0--------

|----------------------------------------------------------
|----------------------------------------------------------
|----------------------------------------------------------
|----------------------------------------------------------
|--------2-1---------5-4---------2-1-------------2-1-------
|--0-2-3-------0-2-3-------0-2-3-------3-2-0-2-3-----------

|----------------------------------------------------------
|----------------------------------------------------------
|------------------------9---9-----------------------------
|-----9-----12-----9-----7-8-7h8p7-------------------------
|-----7-----10-----7---------------------------------------
|-0-0---0-0----0-0---0-0-----------------------------------
  development and support by
dmitry ivanov