rock
 
|tablatures   |lyrics   |discussion forums   |more tabs @ XGuitar.com

Black Sabbath tabs

Shaking Off the Chains guitar tab

Shaking Off The Chains
Black Sabbath - Forbidden (1995)


|----------------------------------------------------------
|----------------------------------------------------------
|------7-----8-----9\8/9\8/9\8-7-----8-----9\8/9\8/9\8-----
|------7-----8-----9\8/9\8/9\8-7-----8-----9\8/9\8/9\8-----
|--xx--5-0-0-6-0-0-7\6/7\6/7\6-5-0-0-6-0-0-7\6/7\6/7\6-----
|-x--------------------------------------------------------

|----------------------------------------------------------
|----------------------------------------------------------
|-12--12-12-12--12-12-12--12-12-12-------------------------
|-12--12-12-12--12-12-12--12-12-12-------------------------
|-10--10-10-10--10-10-10--10-10-10-------------------------
|----------------------------------------------------------

|--------------------------------------------------------------
|--------------------------------------------------------------
|--------------------------------------------------------------
|----5-6-5-5-3h5p3---3--------------5-6-5-5-3h5p3---3----------
|-3----------------6---5h6p5---3--3---------------6---5h6p5---3
|----------------------------6------------------------------6--


  development and support by
dmitry ivanov